  0
SECTION
  2
ENTITIES
  0
ARC
  8
0
 10
0.450
 20
4.550
 40
0.450
 50
0.000
 51
180.000
  0
ARC
  8
0
 10
0.450
 20
-4.550
 40
0.450
 50
180.000
 51
0.000
  0
LINE
  8
0
 10
0.000
 20
4.550
 11
0.000
 21
-4.550
  0
LINE
  8
0
 10
0.900
 20
4.550
 11
0.900
 21
-4.550
  0
LINE
  8
0
 10
0.898
 20
-4.594
 11
1.525
 21
1.751
  0
ARC
  8
0
 10
1.350
 20
4.550
 40
0.450
 50
12.819
 51
-167.181
  0
LINE
  8
0
 10
0.911
 20
4.450
 11
2.982
 21
-4.650
  0
LINE
  8
0
 10
1.789
 20
4.650
 11
3.859
 21
-4.450
  0
ARC
  8
0
 10
3.421
 20
-4.550
 40
0.450
 50
-167.181
 51
12.819
  0
LINE
  8
0
 10
3.859
 20
-4.650
 11
5.491
 21
2.522
  0
LINE
  8
0
 10
3.421
 20
-2.522
 11
5.052
 21
4.650
  0
ARC
  8
0
 10
5.491
 20
4.550
 40
0.450
 50
12.819
 51
-167.181
  0
LINE
  8
0
 10
5.052
 20
4.450
 11
7.123
 21
-4.650
  0
LINE
  8
0
 10
5.930
 20
4.650
 11
8.001
 21
-4.450
  0
ARC
  8
0
 10
7.562
 20
-4.550
 40
0.450
 50
-167.181
 51
12.819
  0
LINE
  8
0
 10
8.001
 20
-4.650
 11
9.633
 21
2.522
  0
LINE
  8
0
 10
7.562
 20
-2.522
 11
9.194
 21
4.650
  0
ARC
  8
0
 10
9.633
 20
4.550
 40
0.450
 50
12.819
 51
-167.181
  0
LINE
  8
0
 10
9.194
 20
4.450
 11
11.264
 21
-4.650
  0
LINE
  8
0
 10
10.071
 20
4.650
 11
12.142
 21
-4.450
  0
ARC
  8
0
 10
11.703
 20
-4.550
 40
0.450
 50
-167.181
 51
12.819
  0
LINE
  8
0
 10
12.142
 20
-4.650
 11
13.774
 21
2.522
  0
LINE
  8
0
 10
11.703
 20
-2.522
 11
13.335
 21
4.650
  0
ARC
  8
0
 10
13.774
 20
4.550
 40
0.450
 50
12.819
 51
-167.181
  0
LINE
  8
0
 10
13.335
 20
4.450
 11
15.406
 21
-4.650
  0
LINE
  8
0
 10
14.213
 20
4.650
 11
16.283
 21
-4.450
  0
ARC
  8
0
 10
15.844
 20
-4.550
 40
0.450
 50
-167.181
 51
12.819
  0
LINE
  8
0
 10
16.283
 20
-4.650
 11
17.915
 21
2.522
  0
LINE
  8
0
 10
15.844
 20
-2.522
 11
17.476
 21
4.650
  0
ARC
  8
0
 10
17.915
 20
4.550
 40
0.450
 50
12.819
 51
-167.181
  0
LINE
  8
0
 10
17.476
 20
4.450
 11
19.547
 21
-4.650
  0
LINE
  8
0
 10
18.354
 20
4.650
 11
20.424
 21
-4.450
  0
ARC
  8
0
 10
19.986
 20
-4.550
 40
0.450
 50
-167.181
 51
12.819
  0
LINE
  8
0
 10
20.424
 20
-4.650
 11
22.056
 21
2.522
  0
LINE
  8
0
 10
19.986
 20
-2.522
 11
21.618
 21
4.650
  0
ARC
  8
0
 10
22.056
 20
4.550
 40
0.450
 50
12.819
 51
-167.181
  0
LINE
  8
0
 10
21.618
 20
4.450
 11
23.688
 21
-4.650
  0
LINE
  8
0
 10
22.495
 20
4.650
 11
24.566
 21
-4.450
  0
ARC
  8
0
 10
24.127
 20
-4.550
 40
0.450
 50
-167.181
 51
12.819
  0
LINE
  8
0
 10
24.566
 20
-4.650
 11
26.198
 21
2.522
  0
LINE
  8
0
 10
24.127
 20
-2.522
 11
25.759
 21
4.650
  0
ARC
  8
0
 10
26.198
 20
4.550
 40
0.450
 50
12.819
 51
-167.181
  0
LINE
  8
0
 10
25.759
 20
4.450
 11
27.829
 21
-4.650
  0
LINE
  8
0
 10
26.636
 20
4.650
 11
28.707
 21
-4.450
  0
ARC
  8
0
 10
28.268
 20
-4.550
 40
0.450
 50
-167.181
 51
12.819
  0
LINE
  8
0
 10
28.707
 20
-4.650
 11
30.339
 21
2.522
  0
LINE
  8
0
 10
28.268
 20
-2.522
 11
29.900
 21
4.650
  0
ARC
  8
0
 10
30.339
 20
4.550
 40
0.450
 50
12.819
 51
-167.181
  0
LINE
  8
0
 10
29.900
 20
4.450
 11
31.971
 21
-4.650
  0
LINE
  8
0
 10
30.778
 20
4.650
 11
32.848
 21
-4.450
  0
ARC
  8
0
 10
32.409
 20
-4.550
 40
0.450
 50
-167.181
 51
12.819
  0
LINE
  8
0
 10
32.848
 20
-4.650
 11
34.480
 21
2.522
  0
LINE
  8
0
 10
32.409
 20
-2.522
 11
34.041
 21
4.650
  0
ARC
  8
0
 10
34.480
 20
4.550
 40
0.450
 50
12.819
 51
-167.181
  0
LINE
  8
0
 10
34.041
 20
4.450
 11
36.112
 21
-4.650
  0
LINE
  8
0
 10
34.919
 20
4.650
 11
36.989
 21
-4.450
  0
ARC
  8
0
 10
36.551
 20
-4.550
 40
0.450
 50
-167.181
 51
12.819
  0
LINE
  8
0
 10
36.989
 20
-4.650
 11
38.621
 21
2.522
  0
LINE
  8
0
 10
36.551
 20
-2.522
 11
38.183
 21
4.650
  0
ARC
  8
0
 10
38.621
 20
4.550
 40
0.450
 50
12.819
 51
-167.181
  0
LINE
  8
0
 10
38.183
 20
4.450
 11
40.253
 21
-4.650
  0
LINE
  8
0
 10
39.060
 20
4.650
 11
41.131
 21
-4.450
  0
ARC
  8
0
 10
40.692
 20
-4.550
 40
0.450
 50
-167.181
 51
12.819
  0
LINE
  8
0
 10
41.131
 20
-4.650
 11
42.763
 21
2.522
  0
LINE
  8
0
 10
40.692
 20
-2.522
 11
42.324
 21
4.650
  0
ARC
  8
0
 10
42.763
 20
4.550
 40
0.450
 50
12.819
 51
-167.181
  0
LINE
  8
0
 10
42.324
 20
4.450
 11
44.394
 21
-4.650
  0
LINE
  8
0
 10
43.201
 20
4.650
 11
45.272
 21
-4.450
  0
ARC
  8
0
 10
44.833
 20
-4.550
 40
0.450
 50
-167.181
 51
12.819
  0
LINE
  8
0
 10
45.272
 20
-4.650
 11
46.904
 21
2.522
  0
LINE
  8
0
 10
44.833
 20
-2.522
 11
46.465
 21
4.650
  0
ARC
  8
0
 10
46.904
 20
4.550
 40
0.450
 50
12.819
 51
-167.181
  0
LINE
  8
0
 10
46.465
 20
4.450
 11
48.536
 21
-4.650
  0
LINE
  8
0
 10
47.343
 20
4.650
 11
49.413
 21
-4.450
  0
ARC
  8
0
 10
48.974
 20
-4.550
 40
0.450
 50
-167.181
 51
12.819
  0
LINE
  8
0
 10
49.413
 20
-4.650
 11
51.045
 21
2.522
  0
LINE
  8
0
 10
48.974
 20
-2.522
 11
50.606
 21
4.650
  0
ARC
  8
0
 10
51.045
 20
4.550
 40
0.450
 50
12.819
 51
-167.181
  0
LINE
  8
0
 10
50.606
 20
4.450
 11
52.677
 21
-4.650
  0
LINE
  8
0
 10
51.484
 20
4.650
 11
53.555
 21
-4.450
  0
ARC
  8
0
 10
53.116
 20
-4.550
 40
0.450
 50
-167.181
 51
12.819
  0
LINE
  8
0
 10
53.555
 20
-4.650
 11
55.186
 21
2.522
  0
LINE
  8
0
 10
53.116
 20
-2.522
 11
54.748
 21
4.650
  0
ARC
  8
0
 10
55.186
 20
4.550
 40
0.450
 50
12.819
 51
-167.181
  0
LINE
  8
0
 10
54.748
 20
4.450
 11
56.818
 21
-4.650
  0
LINE
  8
0
 10
55.625
 20
4.650
 11
57.696
 21
-4.450
  0
ARC
  8
0
 10
57.257
 20
-4.550
 40
0.450
 50
-167.181
 51
12.819
  0
LINE
  8
0
 10
57.696
 20
-4.650
 11
59.328
 21
2.522
  0
LINE
  8
0
 10
57.257
 20
-2.522
 11
58.889
 21
4.650
  0
ARC
  8
0
 10
59.328
 20
4.550
 40
0.450
 50
12.819
 51
-167.181
  0
LINE
  8
0
 10
58.889
 20
4.450
 11
60.959
 21
-4.650
  0
LINE
  8
0
 10
59.766
 20
4.650
 11
61.837
 21
-4.450
  0
ARC
  8
0
 10
61.398
 20
-4.550
 40
0.450
 50
-167.181
 51
12.819
  0
LINE
  8
0
 10
61.837
 20
-4.650
 11
63.469
 21
2.522
  0
LINE
  8
0
 10
61.398
 20
-2.522
 11
63.030
 21
4.650
  0
ARC
  8
0
 10
63.469
 20
4.550
 40
0.450
 50
12.819
 51
-167.181
  0
LINE
  8
0
 10
63.030
 20
4.450
 11
65.101
 21
-4.650
  0
LINE
  8
0
 10
63.908
 20
4.650
 11
65.978
 21
-4.450
  0
ARC
  8
0
 10
65.540
 20
-4.550
 40
0.450
 50
-167.181
 51
12.819
  0
LINE
  8
0
 10
65.978
 20
-4.650
 11
67.610
 21
2.522
  0
LINE
  8
0
 10
65.540
 20
-2.522
 11
67.171
 21
4.650
  0
ARC
  8
0
 10
67.610
 20
4.550
 40
0.450
 50
12.819
 51
-167.181
  0
LINE
  8
0
 10
67.171
 20
4.450
 11
69.242
 21
-4.650
  0
LINE
  8
0
 10
68.049
 20
4.650
 11
70.120
 21
-4.450
  0
ARC
  8
0
 10
69.681
 20
-4.550
 40
0.450
 50
-167.181
 51
12.819
  0
LINE
  8
0
 10
70.120
 20
-4.650
 11
71.751
 21
2.522
  0
LINE
  8
0
 10
69.681
 20
-2.522
 11
71.313
 21
4.650
  0
ARC
  8
0
 10
71.751
 20
4.550
 40
0.450
 50
12.819
 51
-167.181
  0
LINE
  8
0
 10
71.313
 20
4.450
 11
73.383
 21
-4.650
  0
LINE
  8
0
 10
72.190
 20
4.650
 11
74.261
 21
-4.450
  0
ARC
  8
0
 10
73.822
 20
-4.550
 40
0.450
 50
-167.181
 51
12.819
  0
LINE
  8
0
 10
74.261
 20
-4.650
 11
75.893
 21
2.522
  0
LINE
  8
0
 10
73.822
 20
-2.522
 11
75.454
 21
4.650
  0
ARC
  8
0
 10
75.893
 20
4.550
 40
0.450
 50
12.819
 51
-167.181
  0
LINE
  8
0
 10
75.454
 20
4.450
 11
77.525
 21
-4.650
  0
LINE
  8
0
 10
76.331
 20
4.650
 11
78.402
 21
-4.450
  0
ARC
  8
0
 10
77.963
 20
-4.550
 40
0.450
 50
-167.181
 51
12.819
  0
LINE
  8
0
 10
78.402
 20
-4.650
 11
80.034
 21
2.522
  0
LINE
  8
0
 10
77.963
 20
-2.522
 11
79.595
 21
4.650
  0
ARC
  8
0
 10
80.034
 20
4.550
 40
0.450
 50
12.819
 51
-167.181
  0
LINE
  8
0
 10
79.595
 20
4.450
 11
81.666
 21
-4.650
  0
LINE
  8
0
 10
80.473
 20
4.650
 11
82.543
 21
-4.450
  0
ARC
  8
0
 10
82.105
 20
-4.550
 40
0.450
 50
-167.181
 51
12.819
  0
LINE
  8
0
 10
82.543
 20
-4.650
 11
84.175
 21
2.522
  0
LINE
  8
0
 10
82.105
 20
-2.522
 11
83.736
 21
4.650
  0
ARC
  8
0
 10
84.175
 20
4.550
 40
0.450
 50
12.819
 51
-167.181
  0
LINE
  8
0
 10
83.736
 20
4.450
 11
85.807
 21
-4.650
  0
LINE
  8
0
 10
84.614
 20
4.650
 11
86.685
 21
-4.450
  0
ARC
  8
0
 10
86.246
 20
-4.550
 40
0.450
 50
-167.181
 51
12.819
  0
LINE
  8
0
 10
86.685
 20
-4.650
 11
88.316
 21
2.522
  0
LINE
  8
0
 10
86.246
 20
-2.522
 11
87.878
 21
4.650
  0
ARC
  8
0
 10
88.316
 20
4.550
 40
0.450
 50
12.819
 51
-167.181
  0
LINE
  8
0
 10
87.878
 20
4.450
 11
89.948
 21
-4.650
  0
LINE
  8
0
 10
88.755
 20
4.650
 11
90.826
 21
-4.450
  0
ARC
  8
0
 10
90.387
 20
-4.550
 40
0.450
 50
-167.181
 51
12.819
  0
LINE
  8
0
 10
90.826
 20
-4.650
 11
92.458
 21
2.522
  0
LINE
  8
0
 10
90.387
 20
-2.522
 11
92.019
 21
4.650
  0
ARC
  8
0
 10
92.458
 20
4.550
 40
0.450
 50
12.819
 51
-167.181
  0
LINE
  8
0
 10
92.019
 20
4.450
 11
94.090
 21
-4.650
  0
LINE
  8
0
 10
92.896
 20
4.650
 11
94.967
 21
-4.450
  0
ARC
  8
0
 10
94.528
 20
-4.550
 40
0.450
 50
-167.181
 51
12.819
  0
LINE
  8
0
 10
94.967
 20
-4.650
 11
96.599
 21
2.522
  0
LINE
  8
0
 10
94.528
 20
-2.522
 11
96.160
 21
4.650
  0
ARC
  8
0
 10
96.599
 20
4.550
 40
0.450
 50
12.819
 51
-167.181
  0
LINE
  8
0
 10
96.160
 20
4.450
 11
98.231
 21
-4.650
  0
LINE
  8
0
 10
97.038
 20
4.650
 11
99.108
 21
-4.450
  0
ARC
  8
0
 10
98.670
 20
-4.550
 40
0.450
 50
-167.181
 51
12.819
  0
LINE
  8
0
 10
98.494
 20
-1.751
 11
99.122
 21
4.594
  0
LINE
  8
0
 10
99.120
 20
4.550
 11
99.120
 21
-4.550
  0
LINE
  8
0
 10
100.020
 20
4.550
 11
100.020
 21
-4.550
  0
ARC
  8
0
 10
99.570
 20
-4.550
 40
0.450
 50
180.000
 51
0.000
  0
ARC
  8
0
 10
99.570
 20
4.550
 40
0.450
 50
0.000
 51
180.000
  0
ENDSEC
  0
EOF
