  0
SECTION
  2
ENTITIES
  0
ARC
  8
0
 10
0.450
 20
5.050
 40
0.450
 50
0.000
 51
180.000
  0
ARC
  8
0
 10
0.450
 20
-5.050
 40
0.450
 50
180.000
 51
0.000
  0
LINE
  8
0
 10
0.000
 20
5.050
 11
0.000
 21
-5.050
  0
LINE
  8
0
 10
0.900
 20
5.050
 11
0.900
 21
-5.050
  0
LINE
  8
0
 10
0.898
 20
-5.090
 11
1.557
 21
2.300
  0
ARC
  8
0
 10
1.350
 20
5.050
 40
0.450
 50
13.693
 51
-166.307
  0
LINE
  8
0
 10
0.913
 20
4.943
 11
3.374
 21
-5.157
  0
LINE
  8
0
 10
1.787
 20
5.157
 11
4.248
 21
-4.943
  0
ARC
  8
0
 10
3.811
 20
-5.050
 40
0.450
 50
-166.307
 51
13.693
  0
LINE
  8
0
 10
4.248
 20
-5.157
 11
6.272
 21
3.149
  0
LINE
  8
0
 10
3.811
 20
-3.149
 11
5.834
 21
5.157
  0
ARC
  8
0
 10
6.272
 20
5.050
 40
0.450
 50
13.693
 51
-166.307
  0
LINE
  8
0
 10
5.834
 20
4.943
 11
8.295
 21
-5.157
  0
LINE
  8
0
 10
6.709
 20
5.157
 11
9.170
 21
-4.943
  0
ARC
  8
0
 10
8.732
 20
-5.050
 40
0.450
 50
-166.307
 51
13.693
  0
LINE
  8
0
 10
9.170
 20
-5.157
 11
11.193
 21
3.149
  0
LINE
  8
0
 10
8.732
 20
-3.149
 11
10.756
 21
5.157
  0
ARC
  8
0
 10
11.193
 20
5.050
 40
0.450
 50
13.693
 51
-166.307
  0
LINE
  8
0
 10
10.756
 20
4.943
 11
13.217
 21
-5.157
  0
LINE
  8
0
 10
11.630
 20
5.157
 11
14.091
 21
-4.943
  0
ARC
  8
0
 10
13.654
 20
-5.050
 40
0.450
 50
-166.307
 51
13.693
  0
LINE
  8
0
 10
13.447
 20
-2.300
 11
14.106
 21
5.090
  0
LINE
  8
0
 10
14.104
 20
5.050
 11
14.104
 21
-5.050
  0
LINE
  8
0
 10
15.004
 20
5.050
 11
15.004
 21
-5.050
  0
ARC
  8
0
 10
14.554
 20
-5.050
 40
0.450
 50
180.000
 51
0.000
  0
ARC
  8
0
 10
14.554
 20
5.050
 40
0.450
 50
0.000
 51
180.000
  0
ENDSEC
  0
EOF
