  0
SECTION
  2
ENTITIES
  0
ARC
  8
0
 10
0.450
 20
5.050
 40
0.450
 50
0.000
 51
180.000
  0
ARC
  8
0
 10
0.450
 20
-5.050
 40
0.450
 50
180.000
 51
0.000
  0
LINE
  8
0
 10
0.000
 20
5.050
 11
0.000
 21
-5.050
  0
LINE
  8
0
 10
0.900
 20
5.050
 11
0.900
 21
-5.050
  0
LINE
  8
0
 10
0.898
 20
-5.090
 11
1.558
 21
2.320
  0
ARC
  8
0
 10
1.350
 20
5.050
 40
0.450
 50
13.826
 51
-166.174
  0
LINE
  8
0
 10
0.913
 20
4.942
 11
3.399
 21
-5.158
  0
LINE
  8
0
 10
1.787
 20
5.158
 11
4.273
 21
-4.942
  0
ARC
  8
0
 10
3.836
 20
-5.050
 40
0.450
 50
-166.174
 51
13.826
  0
LINE
  8
0
 10
4.273
 20
-5.158
 11
6.321
 21
3.167
  0
LINE
  8
0
 10
3.836
 20
-3.167
 11
5.884
 21
5.158
  0
ARC
  8
0
 10
6.321
 20
5.050
 40
0.450
 50
13.826
 51
-166.174
  0
LINE
  8
0
 10
5.884
 20
4.942
 11
8.370
 21
-5.158
  0
LINE
  8
0
 10
6.758
 20
5.158
 11
9.244
 21
-4.942
  0
ARC
  8
0
 10
8.807
 20
-5.050
 40
0.450
 50
-166.174
 51
13.826
  0
LINE
  8
0
 10
9.244
 20
-5.158
 11
11.293
 21
3.167
  0
LINE
  8
0
 10
8.807
 20
-3.167
 11
10.856
 21
5.158
  0
ARC
  8
0
 10
11.293
 20
5.050
 40
0.450
 50
13.826
 51
-166.174
  0
LINE
  8
0
 10
10.856
 20
4.942
 11
13.341
 21
-5.158
  0
LINE
  8
0
 10
11.730
 20
5.158
 11
14.215
 21
-4.942
  0
ARC
  8
0
 10
13.778
 20
-5.050
 40
0.450
 50
-166.174
 51
13.826
  0
LINE
  8
0
 10
14.215
 20
-5.158
 11
16.264
 21
3.167
  0
LINE
  8
0
 10
13.778
 20
-3.167
 11
15.827
 21
5.158
  0
ARC
  8
0
 10
16.264
 20
5.050
 40
0.450
 50
13.826
 51
-166.174
  0
LINE
  8
0
 10
15.827
 20
4.942
 11
18.313
 21
-5.158
  0
LINE
  8
0
 10
16.701
 20
5.158
 11
19.187
 21
-4.942
  0
ARC
  8
0
 10
18.750
 20
-5.050
 40
0.450
 50
-166.174
 51
13.826
  0
LINE
  8
0
 10
19.187
 20
-5.158
 11
21.235
 21
3.167
  0
LINE
  8
0
 10
18.750
 20
-3.167
 11
20.798
 21
5.158
  0
ARC
  8
0
 10
21.235
 20
5.050
 40
0.450
 50
13.826
 51
-166.174
  0
LINE
  8
0
 10
20.798
 20
4.942
 11
23.284
 21
-5.158
  0
LINE
  8
0
 10
21.672
 20
5.158
 11
24.158
 21
-4.942
  0
ARC
  8
0
 10
23.721
 20
-5.050
 40
0.450
 50
-166.174
 51
13.826
  0
LINE
  8
0
 10
24.158
 20
-5.158
 11
26.207
 21
3.167
  0
LINE
  8
0
 10
23.721
 20
-3.167
 11
25.770
 21
5.158
  0
ARC
  8
0
 10
26.207
 20
5.050
 40
0.450
 50
13.826
 51
-166.174
  0
LINE
  8
0
 10
25.770
 20
4.942
 11
28.255
 21
-5.158
  0
LINE
  8
0
 10
26.644
 20
5.158
 11
29.129
 21
-4.942
  0
ARC
  8
0
 10
28.692
 20
-5.050
 40
0.450
 50
-166.174
 51
13.826
  0
LINE
  8
0
 10
29.129
 20
-5.158
 11
31.178
 21
3.167
  0
LINE
  8
0
 10
28.692
 20
-3.167
 11
30.741
 21
5.158
  0
ARC
  8
0
 10
31.178
 20
5.050
 40
0.450
 50
13.826
 51
-166.174
  0
LINE
  8
0
 10
30.741
 20
4.942
 11
33.227
 21
-5.158
  0
LINE
  8
0
 10
31.615
 20
5.158
 11
34.101
 21
-4.942
  0
ARC
  8
0
 10
33.664
 20
-5.050
 40
0.450
 50
-166.174
 51
13.826
  0
LINE
  8
0
 10
34.101
 20
-5.158
 11
36.149
 21
3.167
  0
LINE
  8
0
 10
33.664
 20
-3.167
 11
35.712
 21
5.158
  0
ARC
  8
0
 10
36.149
 20
5.050
 40
0.450
 50
13.826
 51
-166.174
  0
LINE
  8
0
 10
35.712
 20
4.942
 11
38.198
 21
-5.158
  0
LINE
  8
0
 10
36.586
 20
5.158
 11
39.072
 21
-4.942
  0
ARC
  8
0
 10
38.635
 20
-5.050
 40
0.450
 50
-166.174
 51
13.826
  0
LINE
  8
0
 10
38.427
 20
-2.320
 11
39.087
 21
5.090
  0
LINE
  8
0
 10
39.085
 20
5.050
 11
39.085
 21
-5.050
  0
LINE
  8
0
 10
39.985
 20
5.050
 11
39.985
 21
-5.050
  0
ARC
  8
0
 10
39.535
 20
-5.050
 40
0.450
 50
180.000
 51
0.000
  0
ARC
  8
0
 10
39.535
 20
5.050
 40
0.450
 50
0.000
 51
180.000
  0
ENDSEC
  0
EOF
