  0
SECTION
  2
ENTITIES
  0
ARC
  8
0
 10
0.080
 20
0.770
 40
0.080
 50
0.000
 51
180.000
  0
ARC
  8
0
 10
0.080
 20
-0.770
 40
0.080
 50
180.000
 51
0.000
  0
LINE
  8
0
 10
0.000
 20
0.770
 11
0.000
 21
-0.770
  0
LINE
  8
0
 10
0.160
 20
0.770
 11
0.160
 21
-0.770
  0
LINE
  8
0
 10
0.160
 20
-0.778
 11
0.268
 21
0.269
  0
ARC
  8
0
 10
0.240
 20
0.770
 40
0.080
 50
12.398
 51
-167.602
  0
LINE
  8
0
 10
0.162
 20
0.753
 11
0.500
 21
-0.787
  0
LINE
  8
0
 10
0.318
 20
0.787
 11
0.657
 21
-0.753
  0
ARC
  8
0
 10
0.579
 20
-0.770
 40
0.080
 50
-167.602
 51
12.398
  0
LINE
  8
0
 10
0.657
 20
-0.787
 11
0.917
 21
0.397
  0
LINE
  8
0
 10
0.579
 20
-0.397
 11
0.839
 21
0.787
  0
ARC
  8
0
 10
0.917
 20
0.770
 40
0.080
 50
12.398
 51
-167.602
  0
LINE
  8
0
 10
0.839
 20
0.753
 11
1.177
 21
-0.787
  0
LINE
  8
0
 10
0.995
 20
0.787
 11
1.334
 21
-0.753
  0
ARC
  8
0
 10
1.256
 20
-0.770
 40
0.080
 50
-167.602
 51
12.398
  0
LINE
  8
0
 10
1.334
 20
-0.787
 11
1.594
 21
0.397
  0
LINE
  8
0
 10
1.256
 20
-0.397
 11
1.516
 21
0.787
  0
ARC
  8
0
 10
1.594
 20
0.770
 40
0.080
 50
12.398
 51
-167.602
  0
LINE
  8
0
 10
1.516
 20
0.753
 11
1.855
 21
-0.787
  0
LINE
  8
0
 10
1.672
 20
0.787
 11
2.011
 21
-0.753
  0
ARC
  8
0
 10
1.933
 20
-0.770
 40
0.080
 50
-167.602
 51
12.398
  0
LINE
  8
0
 10
2.011
 20
-0.787
 11
2.271
 21
0.397
  0
LINE
  8
0
 10
1.933
 20
-0.397
 11
2.193
 21
0.787
  0
ARC
  8
0
 10
2.271
 20
0.770
 40
0.080
 50
12.398
 51
-167.602
  0
LINE
  8
0
 10
2.193
 20
0.753
 11
2.532
 21
-0.787
  0
LINE
  8
0
 10
2.349
 20
0.787
 11
2.688
 21
-0.753
  0
ARC
  8
0
 10
2.610
 20
-0.770
 40
0.080
 50
-167.602
 51
12.398
  0
LINE
  8
0
 10
2.688
 20
-0.787
 11
2.948
 21
0.397
  0
LINE
  8
0
 10
2.610
 20
-0.397
 11
2.870
 21
0.787
  0
ARC
  8
0
 10
2.948
 20
0.770
 40
0.080
 50
12.398
 51
-167.602
  0
LINE
  8
0
 10
2.870
 20
0.753
 11
3.209
 21
-0.787
  0
LINE
  8
0
 10
3.026
 20
0.787
 11
3.365
 21
-0.753
  0
ARC
  8
0
 10
3.287
 20
-0.770
 40
0.080
 50
-167.602
 51
12.398
  0
LINE
  8
0
 10
3.365
 20
-0.787
 11
3.625
 21
0.397
  0
LINE
  8
0
 10
3.287
 20
-0.397
 11
3.547
 21
0.787
  0
ARC
  8
0
 10
3.625
 20
0.770
 40
0.080
 50
12.398
 51
-167.602
  0
LINE
  8
0
 10
3.547
 20
0.753
 11
3.886
 21
-0.787
  0
LINE
  8
0
 10
3.704
 20
0.787
 11
4.042
 21
-0.753
  0
ARC
  8
0
 10
3.964
 20
-0.770
 40
0.080
 50
-167.602
 51
12.398
  0
LINE
  8
0
 10
4.042
 20
-0.787
 11
4.302
 21
0.397
  0
LINE
  8
0
 10
3.964
 20
-0.397
 11
4.224
 21
0.787
  0
ARC
  8
0
 10
4.302
 20
0.770
 40
0.080
 50
12.398
 51
-167.602
  0
LINE
  8
0
 10
4.224
 20
0.753
 11
4.563
 21
-0.787
  0
LINE
  8
0
 10
4.381
 20
0.787
 11
4.719
 21
-0.753
  0
ARC
  8
0
 10
4.641
 20
-0.770
 40
0.080
 50
-167.602
 51
12.398
  0
LINE
  8
0
 10
4.719
 20
-0.787
 11
4.980
 21
0.397
  0
LINE
  8
0
 10
4.641
 20
-0.397
 11
4.901
 21
0.787
  0
ARC
  8
0
 10
4.980
 20
0.770
 40
0.080
 50
12.398
 51
-167.602
  0
LINE
  8
0
 10
4.901
 20
0.753
 11
5.240
 21
-0.787
  0
LINE
  8
0
 10
5.058
 20
0.787
 11
5.396
 21
-0.753
  0
ARC
  8
0
 10
5.318
 20
-0.770
 40
0.080
 50
-167.602
 51
12.398
  0
LINE
  8
0
 10
5.396
 20
-0.787
 11
5.657
 21
0.397
  0
LINE
  8
0
 10
5.318
 20
-0.397
 11
5.579
 21
0.787
  0
ARC
  8
0
 10
5.657
 20
0.770
 40
0.080
 50
12.398
 51
-167.602
  0
LINE
  8
0
 10
5.579
 20
0.753
 11
5.917
 21
-0.787
  0
LINE
  8
0
 10
5.735
 20
0.787
 11
6.073
 21
-0.753
  0
ARC
  8
0
 10
5.995
 20
-0.770
 40
0.080
 50
-167.602
 51
12.398
  0
LINE
  8
0
 10
6.073
 20
-0.787
 11
6.334
 21
0.397
  0
LINE
  8
0
 10
5.995
 20
-0.397
 11
6.256
 21
0.787
  0
ARC
  8
0
 10
6.334
 20
0.770
 40
0.080
 50
12.398
 51
-167.602
  0
LINE
  8
0
 10
6.256
 20
0.753
 11
6.594
 21
-0.787
  0
LINE
  8
0
 10
6.412
 20
0.787
 11
6.750
 21
-0.753
  0
ARC
  8
0
 10
6.672
 20
-0.770
 40
0.080
 50
-167.602
 51
12.398
  0
LINE
  8
0
 10
6.750
 20
-0.787
 11
7.011
 21
0.397
  0
LINE
  8
0
 10
6.672
 20
-0.397
 11
6.933
 21
0.787
  0
ARC
  8
0
 10
7.011
 20
0.770
 40
0.080
 50
12.398
 51
-167.602
  0
LINE
  8
0
 10
6.933
 20
0.753
 11
7.271
 21
-0.787
  0
LINE
  8
0
 10
7.089
 20
0.787
 11
7.427
 21
-0.753
  0
ARC
  8
0
 10
7.349
 20
-0.770
 40
0.080
 50
-167.602
 51
12.398
  0
LINE
  8
0
 10
7.427
 20
-0.787
 11
7.688
 21
0.397
  0
LINE
  8
0
 10
7.349
 20
-0.397
 11
7.610
 21
0.787
  0
ARC
  8
0
 10
7.688
 20
0.770
 40
0.080
 50
12.398
 51
-167.602
  0
LINE
  8
0
 10
7.610
 20
0.753
 11
7.948
 21
-0.787
  0
LINE
  8
0
 10
7.766
 20
0.787
 11
8.105
 21
-0.753
  0
ARC
  8
0
 10
8.026
 20
-0.770
 40
0.080
 50
-167.602
 51
12.398
  0
LINE
  8
0
 10
8.105
 20
-0.787
 11
8.365
 21
0.397
  0
LINE
  8
0
 10
8.026
 20
-0.397
 11
8.287
 21
0.787
  0
ARC
  8
0
 10
8.365
 20
0.770
 40
0.080
 50
12.398
 51
-167.602
  0
LINE
  8
0
 10
8.287
 20
0.753
 11
8.625
 21
-0.787
  0
LINE
  8
0
 10
8.443
 20
0.787
 11
8.782
 21
-0.753
  0
ARC
  8
0
 10
8.704
 20
-0.770
 40
0.080
 50
-167.602
 51
12.398
  0
LINE
  8
0
 10
8.782
 20
-0.787
 11
9.042
 21
0.397
  0
LINE
  8
0
 10
8.704
 20
-0.397
 11
8.964
 21
0.787
  0
ARC
  8
0
 10
9.042
 20
0.770
 40
0.080
 50
12.398
 51
-167.602
  0
LINE
  8
0
 10
8.964
 20
0.753
 11
9.302
 21
-0.787
  0
LINE
  8
0
 10
9.120
 20
0.787
 11
9.459
 21
-0.753
  0
ARC
  8
0
 10
9.381
 20
-0.770
 40
0.080
 50
-167.602
 51
12.398
  0
LINE
  8
0
 10
9.459
 20
-0.787
 11
9.719
 21
0.397
  0
LINE
  8
0
 10
9.381
 20
-0.397
 11
9.641
 21
0.787
  0
ARC
  8
0
 10
9.719
 20
0.770
 40
0.080
 50
12.398
 51
-167.602
  0
LINE
  8
0
 10
9.641
 20
0.753
 11
9.980
 21
-0.787
  0
LINE
  8
0
 10
9.797
 20
0.787
 11
10.136
 21
-0.753
  0
ARC
  8
0
 10
10.058
 20
-0.770
 40
0.080
 50
-167.602
 51
12.398
  0
LINE
  8
0
 10
10.136
 20
-0.787
 11
10.396
 21
0.397
  0
LINE
  8
0
 10
10.058
 20
-0.397
 11
10.318
 21
0.787
  0
ARC
  8
0
 10
10.396
 20
0.770
 40
0.080
 50
12.398
 51
-167.602
  0
LINE
  8
0
 10
10.318
 20
0.753
 11
10.657
 21
-0.787
  0
LINE
  8
0
 10
10.474
 20
0.787
 11
10.813
 21
-0.753
  0
ARC
  8
0
 10
10.735
 20
-0.770
 40
0.080
 50
-167.602
 51
12.398
  0
LINE
  8
0
 10
10.813
 20
-0.787
 11
11.073
 21
0.397
  0
LINE
  8
0
 10
10.735
 20
-0.397
 11
10.995
 21
0.787
  0
ARC
  8
0
 10
11.073
 20
0.770
 40
0.080
 50
12.398
 51
-167.602
  0
LINE
  8
0
 10
10.995
 20
0.753
 11
11.334
 21
-0.787
  0
LINE
  8
0
 10
11.151
 20
0.787
 11
11.490
 21
-0.753
  0
ARC
  8
0
 10
11.412
 20
-0.770
 40
0.080
 50
-167.602
 51
12.398
  0
LINE
  8
0
 10
11.412
 20
-0.397
 11
11.672
 21
0.787
  0
LINE
  8
0
 10
11.490
 20
-0.787
 11
11.722
 21
0.269
  0
ARC
  8
0
 10
11.750
 20
0.770
 40
0.080
 50
5.932
 51
-174.068
  0
LINE
  8
0
 10
11.671
 20
0.762
 11
11.831
 21
-0.778
  0
LINE
  8
0
 10
11.830
 20
0.778
 11
11.990
 21
-0.766
  0
ARC
  8
0
 10
11.910
 20
-0.770
 40
0.080
 50
-174.068
 51
0.000
  0
CIRCLE
  8
0
 10
11.910
 20
0.770
 40
0.080
  0
LINE
  8
0
 10
11.990
 20
0.770
 11
11.990
 21
-0.770
  0
ENDSEC
  0
EOF
