  0
SECTION
  2
ENTITIES
  0
ARC
  8
0
 10
0.090
 20
0.760
 40
0.090
 50
0.000
 51
180.000
  0
ARC
  8
0
 10
0.090
 20
-0.760
 40
0.090
 50
180.000
 51
0.000
  0
LINE
  8
0
 10
0.000
 20
0.760
 11
0.000
 21
-0.760
  0
LINE
  8
0
 10
0.180
 20
0.760
 11
0.180
 21
-0.760
  0
LINE
  8
0
 10
0.179
 20
-0.771
 11
0.294
 21
0.198
  0
ARC
  8
0
 10
0.270
 20
0.760
 40
0.090
 50
11.646
 51
-168.354
  0
LINE
  8
0
 10
0.182
 20
0.742
 11
0.495
 21
-0.778
  0
LINE
  8
0
 10
0.358
 20
0.778
 11
0.671
 21
-0.742
  0
ARC
  8
0
 10
0.583
 20
-0.760
 40
0.090
 50
-168.354
 51
11.646
  0
LINE
  8
0
 10
0.671
 20
-0.778
 11
0.897
 21
0.314
  0
LINE
  8
0
 10
0.583
 20
-0.314
 11
0.808
 21
0.778
  0
ARC
  8
0
 10
0.897
 20
0.760
 40
0.090
 50
11.646
 51
-168.354
  0
LINE
  8
0
 10
0.808
 20
0.742
 11
1.122
 21
-0.778
  0
LINE
  8
0
 10
0.985
 20
0.778
 11
1.298
 21
-0.742
  0
ARC
  8
0
 10
1.210
 20
-0.760
 40
0.090
 50
-168.354
 51
11.646
  0
LINE
  8
0
 10
1.298
 20
-0.778
 11
1.523
 21
0.314
  0
LINE
  8
0
 10
1.210
 20
-0.314
 11
1.435
 21
0.778
  0
ARC
  8
0
 10
1.523
 20
0.760
 40
0.090
 50
11.646
 51
-168.354
  0
LINE
  8
0
 10
1.435
 20
0.742
 11
1.748
 21
-0.778
  0
LINE
  8
0
 10
1.611
 20
0.778
 11
1.925
 21
-0.742
  0
ARC
  8
0
 10
1.836
 20
-0.760
 40
0.090
 50
-168.354
 51
11.646
  0
LINE
  8
0
 10
1.925
 20
-0.778
 11
2.150
 21
0.314
  0
LINE
  8
0
 10
1.836
 20
-0.314
 11
2.062
 21
0.778
  0
ARC
  8
0
 10
2.150
 20
0.760
 40
0.090
 50
11.646
 51
-168.354
  0
LINE
  8
0
 10
2.062
 20
0.742
 11
2.375
 21
-0.778
  0
LINE
  8
0
 10
2.238
 20
0.778
 11
2.551
 21
-0.742
  0
ARC
  8
0
 10
2.463
 20
-0.760
 40
0.090
 50
-168.354
 51
11.646
  0
LINE
  8
0
 10
2.551
 20
-0.778
 11
2.776
 21
0.314
  0
LINE
  8
0
 10
2.463
 20
-0.314
 11
2.688
 21
0.778
  0
ARC
  8
0
 10
2.776
 20
0.760
 40
0.090
 50
11.646
 51
-168.354
  0
LINE
  8
0
 10
2.688
 20
0.742
 11
3.002
 21
-0.778
  0
LINE
  8
0
 10
2.865
 20
0.778
 11
3.178
 21
-0.742
  0
ARC
  8
0
 10
3.090
 20
-0.760
 40
0.090
 50
-168.354
 51
11.646
  0
LINE
  8
0
 10
3.178
 20
-0.778
 11
3.403
 21
0.314
  0
LINE
  8
0
 10
3.090
 20
-0.314
 11
3.315
 21
0.778
  0
ARC
  8
0
 10
3.403
 20
0.760
 40
0.090
 50
11.646
 51
-168.354
  0
LINE
  8
0
 10
3.315
 20
0.742
 11
3.628
 21
-0.778
  0
LINE
  8
0
 10
3.491
 20
0.778
 11
3.804
 21
-0.742
  0
ARC
  8
0
 10
3.716
 20
-0.760
 40
0.090
 50
-168.354
 51
11.646
  0
LINE
  8
0
 10
3.804
 20
-0.778
 11
4.030
 21
0.314
  0
LINE
  8
0
 10
3.716
 20
-0.314
 11
3.941
 21
0.778
  0
ARC
  8
0
 10
4.030
 20
0.760
 40
0.090
 50
11.646
 51
-168.354
  0
LINE
  8
0
 10
3.941
 20
0.742
 11
4.255
 21
-0.778
  0
LINE
  8
0
 10
4.118
 20
0.778
 11
4.431
 21
-0.742
  0
ARC
  8
0
 10
4.343
 20
-0.760
 40
0.090
 50
-168.354
 51
11.646
  0
LINE
  8
0
 10
4.431
 20
-0.778
 11
4.656
 21
0.314
  0
LINE
  8
0
 10
4.343
 20
-0.314
 11
4.568
 21
0.778
  0
ARC
  8
0
 10
4.656
 20
0.760
 40
0.090
 50
11.646
 51
-168.354
  0
LINE
  8
0
 10
4.568
 20
0.742
 11
4.881
 21
-0.778
  0
LINE
  8
0
 10
4.744
 20
0.778
 11
5.058
 21
-0.742
  0
ARC
  8
0
 10
4.969
 20
-0.760
 40
0.090
 50
-168.354
 51
11.646
  0
LINE
  8
0
 10
5.058
 20
-0.778
 11
5.283
 21
0.314
  0
LINE
  8
0
 10
4.969
 20
-0.314
 11
5.195
 21
0.778
  0
ARC
  8
0
 10
5.283
 20
0.760
 40
0.090
 50
11.646
 51
-168.354
  0
LINE
  8
0
 10
5.195
 20
0.742
 11
5.508
 21
-0.778
  0
LINE
  8
0
 10
5.371
 20
0.778
 11
5.684
 21
-0.742
  0
ARC
  8
0
 10
5.596
 20
-0.760
 40
0.090
 50
-168.354
 51
11.646
  0
LINE
  8
0
 10
5.684
 20
-0.778
 11
5.909
 21
0.314
  0
LINE
  8
0
 10
5.596
 20
-0.314
 11
5.821
 21
0.778
  0
ARC
  8
0
 10
5.909
 20
0.760
 40
0.090
 50
11.646
 51
-168.354
  0
LINE
  8
0
 10
5.821
 20
0.742
 11
6.134
 21
-0.778
  0
LINE
  8
0
 10
5.997
 20
0.778
 11
6.311
 21
-0.742
  0
ARC
  8
0
 10
6.223
 20
-0.760
 40
0.090
 50
-168.354
 51
11.646
  0
LINE
  8
0
 10
6.199
 20
-0.198
 11
6.313
 21
0.771
  0
LINE
  8
0
 10
6.313
 20
0.760
 11
6.313
 21
-0.760
  0
LINE
  8
0
 10
6.493
 20
0.760
 11
6.493
 21
-0.760
  0
ARC
  8
0
 10
6.403
 20
-0.760
 40
0.090
 50
180.000
 51
0.000
  0
ARC
  8
0
 10
6.403
 20
0.760
 40
0.090
 50
0.000
 51
180.000
  0
ENDSEC
  0
EOF
