  0
SECTION
  2
ENTITIES
  0
ARC
  8
0
 10
0.090
 20
0.760
 40
0.090
 50
0.000
 51
180.000
  0
ARC
  8
0
 10
0.090
 20
-0.760
 40
0.090
 50
180.000
 51
0.000
  0
LINE
  8
0
 10
0.000
 20
0.760
 11
0.000
 21
-0.760
  0
LINE
  8
0
 10
0.180
 20
0.760
 11
0.180
 21
-0.760
  0
LINE
  8
0
 10
0.179
 20
-0.771
 11
0.294
 21
0.197
  0
ARC
  8
0
 10
0.270
 20
0.760
 40
0.090
 50
11.614
 51
-168.386
  0
LINE
  8
0
 10
0.182
 20
0.742
 11
0.494
 21
-0.778
  0
LINE
  8
0
 10
0.358
 20
0.778
 11
0.671
 21
-0.742
  0
ARC
  8
0
 10
0.582
 20
-0.760
 40
0.090
 50
-168.386
 51
11.614
  0
LINE
  8
0
 10
0.671
 20
-0.778
 11
0.895
 21
0.313
  0
LINE
  8
0
 10
0.582
 20
-0.313
 11
0.807
 21
0.778
  0
ARC
  8
0
 10
0.895
 20
0.760
 40
0.090
 50
11.614
 51
-168.386
  0
LINE
  8
0
 10
0.807
 20
0.742
 11
1.119
 21
-0.778
  0
LINE
  8
0
 10
0.983
 20
0.778
 11
1.295
 21
-0.742
  0
ARC
  8
0
 10
1.207
 20
-0.760
 40
0.090
 50
-168.386
 51
11.614
  0
LINE
  8
0
 10
1.295
 20
-0.778
 11
1.520
 21
0.313
  0
LINE
  8
0
 10
1.207
 20
-0.313
 11
1.431
 21
0.778
  0
ARC
  8
0
 10
1.520
 20
0.760
 40
0.090
 50
11.614
 51
-168.386
  0
LINE
  8
0
 10
1.431
 20
0.742
 11
1.744
 21
-0.778
  0
LINE
  8
0
 10
1.608
 20
0.778
 11
1.920
 21
-0.742
  0
ARC
  8
0
 10
1.832
 20
-0.760
 40
0.090
 50
-168.386
 51
11.614
  0
LINE
  8
0
 10
1.920
 20
-0.778
 11
2.144
 21
0.313
  0
LINE
  8
0
 10
1.832
 20
-0.313
 11
2.056
 21
0.778
  0
ARC
  8
0
 10
2.144
 20
0.760
 40
0.090
 50
11.614
 51
-168.386
  0
LINE
  8
0
 10
2.056
 20
0.742
 11
2.369
 21
-0.778
  0
LINE
  8
0
 10
2.233
 20
0.778
 11
2.545
 21
-0.742
  0
ARC
  8
0
 10
2.457
 20
-0.760
 40
0.090
 50
-168.386
 51
11.614
  0
LINE
  8
0
 10
2.545
 20
-0.778
 11
2.769
 21
0.313
  0
LINE
  8
0
 10
2.457
 20
-0.313
 11
2.681
 21
0.778
  0
ARC
  8
0
 10
2.769
 20
0.760
 40
0.090
 50
11.614
 51
-168.386
  0
LINE
  8
0
 10
2.681
 20
0.742
 11
2.994
 21
-0.778
  0
LINE
  8
0
 10
2.857
 20
0.778
 11
3.170
 21
-0.742
  0
ARC
  8
0
 10
3.082
 20
-0.760
 40
0.090
 50
-168.386
 51
11.614
  0
LINE
  8
0
 10
3.170
 20
-0.778
 11
3.394
 21
0.313
  0
LINE
  8
0
 10
3.082
 20
-0.313
 11
3.306
 21
0.778
  0
ARC
  8
0
 10
3.394
 20
0.760
 40
0.090
 50
11.614
 51
-168.386
  0
LINE
  8
0
 10
3.306
 20
0.742
 11
3.618
 21
-0.778
  0
LINE
  8
0
 10
3.482
 20
0.778
 11
3.795
 21
-0.742
  0
ARC
  8
0
 10
3.707
 20
-0.760
 40
0.090
 50
-168.386
 51
11.614
  0
LINE
  8
0
 10
3.795
 20
-0.778
 11
4.019
 21
0.313
  0
LINE
  8
0
 10
3.707
 20
-0.313
 11
3.931
 21
0.778
  0
ARC
  8
0
 10
4.019
 20
0.760
 40
0.090
 50
11.614
 51
-168.386
  0
LINE
  8
0
 10
3.931
 20
0.742
 11
4.243
 21
-0.778
  0
LINE
  8
0
 10
4.107
 20
0.778
 11
4.420
 21
-0.742
  0
ARC
  8
0
 10
4.331
 20
-0.760
 40
0.090
 50
-168.386
 51
11.614
  0
LINE
  8
0
 10
4.420
 20
-0.778
 11
4.644
 21
0.313
  0
LINE
  8
0
 10
4.331
 20
-0.313
 11
4.556
 21
0.778
  0
ARC
  8
0
 10
4.644
 20
0.760
 40
0.090
 50
11.614
 51
-168.386
  0
LINE
  8
0
 10
4.556
 20
0.742
 11
4.868
 21
-0.778
  0
LINE
  8
0
 10
4.732
 20
0.778
 11
5.044
 21
-0.742
  0
ARC
  8
0
 10
4.956
 20
-0.760
 40
0.090
 50
-168.386
 51
11.614
  0
LINE
  8
0
 10
5.044
 20
-0.778
 11
5.269
 21
0.313
  0
LINE
  8
0
 10
4.956
 20
-0.313
 11
5.180
 21
0.778
  0
ARC
  8
0
 10
5.269
 20
0.760
 40
0.090
 50
11.614
 51
-168.386
  0
LINE
  8
0
 10
5.180
 20
0.742
 11
5.493
 21
-0.778
  0
LINE
  8
0
 10
5.357
 20
0.778
 11
5.669
 21
-0.742
  0
ARC
  8
0
 10
5.581
 20
-0.760
 40
0.090
 50
-168.386
 51
11.614
  0
LINE
  8
0
 10
5.669
 20
-0.778
 11
5.893
 21
0.313
  0
LINE
  8
0
 10
5.581
 20
-0.313
 11
5.805
 21
0.778
  0
ARC
  8
0
 10
5.893
 20
0.760
 40
0.090
 50
11.614
 51
-168.386
  0
LINE
  8
0
 10
5.805
 20
0.742
 11
6.118
 21
-0.778
  0
LINE
  8
0
 10
5.982
 20
0.778
 11
6.294
 21
-0.742
  0
ARC
  8
0
 10
6.206
 20
-0.760
 40
0.090
 50
-168.386
 51
11.614
  0
LINE
  8
0
 10
6.294
 20
-0.778
 11
6.518
 21
0.313
  0
LINE
  8
0
 10
6.206
 20
-0.313
 11
6.430
 21
0.778
  0
ARC
  8
0
 10
6.518
 20
0.760
 40
0.090
 50
11.614
 51
-168.386
  0
LINE
  8
0
 10
6.430
 20
0.742
 11
6.742
 21
-0.778
  0
LINE
  8
0
 10
6.606
 20
0.778
 11
6.919
 21
-0.742
  0
ARC
  8
0
 10
6.831
 20
-0.760
 40
0.090
 50
-168.386
 51
11.614
  0
LINE
  8
0
 10
6.919
 20
-0.778
 11
7.143
 21
0.313
  0
LINE
  8
0
 10
6.831
 20
-0.313
 11
7.055
 21
0.778
  0
ARC
  8
0
 10
7.143
 20
0.760
 40
0.090
 50
11.614
 51
-168.386
  0
LINE
  8
0
 10
7.055
 20
0.742
 11
7.367
 21
-0.778
  0
LINE
  8
0
 10
7.231
 20
0.778
 11
7.544
 21
-0.742
  0
ARC
  8
0
 10
7.455
 20
-0.760
 40
0.090
 50
-168.386
 51
11.614
  0
LINE
  8
0
 10
7.544
 20
-0.778
 11
7.768
 21
0.313
  0
LINE
  8
0
 10
7.455
 20
-0.313
 11
7.680
 21
0.778
  0
ARC
  8
0
 10
7.768
 20
0.760
 40
0.090
 50
11.614
 51
-168.386
  0
LINE
  8
0
 10
7.680
 20
0.742
 11
7.992
 21
-0.778
  0
LINE
  8
0
 10
7.856
 20
0.778
 11
8.168
 21
-0.742
  0
ARC
  8
0
 10
8.080
 20
-0.760
 40
0.090
 50
-168.386
 51
11.614
  0
LINE
  8
0
 10
8.168
 20
-0.778
 11
8.393
 21
0.313
  0
LINE
  8
0
 10
8.080
 20
-0.313
 11
8.305
 21
0.778
  0
ARC
  8
0
 10
8.393
 20
0.760
 40
0.090
 50
11.614
 51
-168.386
  0
LINE
  8
0
 10
8.305
 20
0.742
 11
8.617
 21
-0.778
  0
LINE
  8
0
 10
8.481
 20
0.778
 11
8.793
 21
-0.742
  0
ARC
  8
0
 10
8.705
 20
-0.760
 40
0.090
 50
-168.386
 51
11.614
  0
LINE
  8
0
 10
8.793
 20
-0.778
 11
9.018
 21
0.313
  0
LINE
  8
0
 10
8.705
 20
-0.313
 11
8.929
 21
0.778
  0
ARC
  8
0
 10
9.018
 20
0.760
 40
0.090
 50
11.614
 51
-168.386
  0
LINE
  8
0
 10
8.929
 20
0.742
 11
9.242
 21
-0.778
  0
LINE
  8
0
 10
9.106
 20
0.778
 11
9.418
 21
-0.742
  0
ARC
  8
0
 10
9.330
 20
-0.760
 40
0.090
 50
-168.386
 51
11.614
  0
LINE
  8
0
 10
9.418
 20
-0.778
 11
9.642
 21
0.313
  0
LINE
  8
0
 10
9.330
 20
-0.313
 11
9.554
 21
0.778
  0
ARC
  8
0
 10
9.642
 20
0.760
 40
0.090
 50
11.614
 51
-168.386
  0
LINE
  8
0
 10
9.554
 20
0.742
 11
9.867
 21
-0.778
  0
LINE
  8
0
 10
9.730
 20
0.778
 11
10.043
 21
-0.742
  0
ARC
  8
0
 10
9.955
 20
-0.760
 40
0.090
 50
-168.386
 51
11.614
  0
LINE
  8
0
 10
10.043
 20
-0.778
 11
10.267
 21
0.313
  0
LINE
  8
0
 10
9.955
 20
-0.313
 11
10.179
 21
0.778
  0
ARC
  8
0
 10
10.267
 20
0.760
 40
0.090
 50
11.614
 51
-168.386
  0
LINE
  8
0
 10
10.179
 20
0.742
 11
10.491
 21
-0.778
  0
LINE
  8
0
 10
10.355
 20
0.778
 11
10.668
 21
-0.742
  0
ARC
  8
0
 10
10.580
 20
-0.760
 40
0.090
 50
-168.386
 51
11.614
  0
LINE
  8
0
 10
10.668
 20
-0.778
 11
10.892
 21
0.313
  0
LINE
  8
0
 10
10.580
 20
-0.313
 11
10.804
 21
0.778
  0
ARC
  8
0
 10
10.892
 20
0.760
 40
0.090
 50
11.614
 51
-168.386
  0
LINE
  8
0
 10
10.804
 20
0.742
 11
11.116
 21
-0.778
  0
LINE
  8
0
 10
10.980
 20
0.778
 11
11.293
 21
-0.742
  0
ARC
  8
0
 10
11.204
 20
-0.760
 40
0.090
 50
-168.386
 51
11.614
  0
LINE
  8
0
 10
11.293
 20
-0.778
 11
11.517
 21
0.313
  0
LINE
  8
0
 10
11.204
 20
-0.313
 11
11.429
 21
0.778
  0
ARC
  8
0
 10
11.517
 20
0.760
 40
0.090
 50
11.614
 51
-168.386
  0
LINE
  8
0
 10
11.429
 20
0.742
 11
11.741
 21
-0.778
  0
LINE
  8
0
 10
11.605
 20
0.778
 11
11.917
 21
-0.742
  0
ARC
  8
0
 10
11.829
 20
-0.760
 40
0.090
 50
-168.386
 51
11.614
  0
LINE
  8
0
 10
11.917
 20
-0.778
 11
12.142
 21
0.313
  0
LINE
  8
0
 10
11.829
 20
-0.313
 11
12.053
 21
0.778
  0
ARC
  8
0
 10
12.142
 20
0.760
 40
0.090
 50
11.614
 51
-168.386
  0
LINE
  8
0
 10
12.053
 20
0.742
 11
12.366
 21
-0.778
  0
LINE
  8
0
 10
12.230
 20
0.778
 11
12.542
 21
-0.742
  0
ARC
  8
0
 10
12.454
 20
-0.760
 40
0.090
 50
-168.386
 51
11.614
  0
LINE
  8
0
 10
12.542
 20
-0.778
 11
12.766
 21
0.313
  0
LINE
  8
0
 10
12.454
 20
-0.313
 11
12.678
 21
0.778
  0
ARC
  8
0
 10
12.766
 20
0.760
 40
0.090
 50
11.614
 51
-168.386
  0
LINE
  8
0
 10
12.678
 20
0.742
 11
12.991
 21
-0.778
  0
LINE
  8
0
 10
12.855
 20
0.778
 11
13.167
 21
-0.742
  0
ARC
  8
0
 10
13.079
 20
-0.760
 40
0.090
 50
-168.386
 51
11.614
  0
LINE
  8
0
 10
13.167
 20
-0.778
 11
13.391
 21
0.313
  0
LINE
  8
0
 10
13.079
 20
-0.313
 11
13.303
 21
0.778
  0
ARC
  8
0
 10
13.391
 20
0.760
 40
0.090
 50
11.614
 51
-168.386
  0
LINE
  8
0
 10
13.303
 20
0.742
 11
13.616
 21
-0.778
  0
LINE
  8
0
 10
13.479
 20
0.778
 11
13.792
 21
-0.742
  0
ARC
  8
0
 10
13.704
 20
-0.760
 40
0.090
 50
-168.386
 51
11.614
  0
LINE
  8
0
 10
13.680
 20
-0.197
 11
13.794
 21
0.771
  0
LINE
  8
0
 10
13.794
 20
0.760
 11
13.794
 21
-0.760
  0
LINE
  8
0
 10
13.974
 20
0.760
 11
13.974
 21
-0.760
  0
ARC
  8
0
 10
13.884
 20
-0.760
 40
0.090
 50
180.000
 51
0.000
  0
ARC
  8
0
 10
13.884
 20
0.760
 40
0.090
 50
0.000
 51
180.000
  0
ENDSEC
  0
EOF
