  0
SECTION
  2
ENTITIES
  0
ARC
  8
0
 10
0.100
 20
0.750
 40
0.100
 50
0.000
 51
180.000
  0
ARC
  8
0
 10
0.100
 20
-0.750
 40
0.100
 50
180.000
 51
0.000
  0
LINE
  8
0
 10
0.000
 20
0.750
 11
0.000
 21
-0.750
  0
LINE
  8
0
 10
0.200
 20
0.750
 11
0.200
 21
-0.750
  0
LINE
  8
0
 10
0.199
 20
-0.763
 11
0.319
 21
0.135
  0
ARC
  8
0
 10
0.300
 20
0.750
 40
0.100
 50
11.118
 51
-168.882
  0
LINE
  8
0
 10
0.202
 20
0.731
 11
0.497
 21
-0.769
  0
LINE
  8
0
 10
0.398
 20
0.769
 11
0.693
 21
-0.731
  0
ARC
  8
0
 10
0.595
 20
-0.750
 40
0.100
 50
-168.882
 51
11.118
  0
LINE
  8
0
 10
0.693
 20
-0.769
 11
0.890
 21
0.231
  0
LINE
  8
0
 10
0.595
 20
-0.231
 11
0.791
 21
0.769
  0
ARC
  8
0
 10
0.890
 20
0.750
 40
0.100
 50
11.118
 51
-168.882
  0
LINE
  8
0
 10
0.791
 20
0.731
 11
1.086
 21
-0.769
  0
LINE
  8
0
 10
0.988
 20
0.769
 11
1.282
 21
-0.731
  0
ARC
  8
0
 10
1.184
 20
-0.750
 40
0.100
 50
-168.882
 51
11.118
  0
LINE
  8
0
 10
1.282
 20
-0.769
 11
1.479
 21
0.231
  0
LINE
  8
0
 10
1.184
 20
-0.231
 11
1.381
 21
0.769
  0
ARC
  8
0
 10
1.479
 20
0.750
 40
0.100
 50
11.118
 51
-168.882
  0
LINE
  8
0
 10
1.381
 20
0.731
 11
1.676
 21
-0.769
  0
LINE
  8
0
 10
1.577
 20
0.769
 11
1.872
 21
-0.731
  0
ARC
  8
0
 10
1.774
 20
-0.750
 40
0.100
 50
-168.882
 51
11.118
  0
LINE
  8
0
 10
1.872
 20
-0.769
 11
2.069
 21
0.231
  0
LINE
  8
0
 10
1.774
 20
-0.231
 11
1.971
 21
0.769
  0
ARC
  8
0
 10
2.069
 20
0.750
 40
0.100
 50
11.118
 51
-168.882
  0
LINE
  8
0
 10
1.971
 20
0.731
 11
2.265
 21
-0.769
  0
LINE
  8
0
 10
2.167
 20
0.769
 11
2.462
 21
-0.731
  0
ARC
  8
0
 10
2.363
 20
-0.750
 40
0.100
 50
-168.882
 51
11.118
  0
LINE
  8
0
 10
2.462
 20
-0.769
 11
2.658
 21
0.231
  0
LINE
  8
0
 10
2.363
 20
-0.231
 11
2.560
 21
0.769
  0
ARC
  8
0
 10
2.658
 20
0.750
 40
0.100
 50
11.118
 51
-168.882
  0
LINE
  8
0
 10
2.560
 20
0.731
 11
2.855
 21
-0.769
  0
LINE
  8
0
 10
2.756
 20
0.769
 11
3.051
 21
-0.731
  0
ARC
  8
0
 10
2.953
 20
-0.750
 40
0.100
 50
-168.882
 51
11.118
  0
LINE
  8
0
 10
3.051
 20
-0.769
 11
3.248
 21
0.231
  0
LINE
  8
0
 10
2.953
 20
-0.231
 11
3.150
 21
0.769
  0
ARC
  8
0
 10
3.248
 20
0.750
 40
0.100
 50
11.118
 51
-168.882
  0
LINE
  8
0
 10
3.150
 20
0.731
 11
3.444
 21
-0.769
  0
LINE
  8
0
 10
3.346
 20
0.769
 11
3.641
 21
-0.731
  0
ARC
  8
0
 10
3.543
 20
-0.750
 40
0.100
 50
-168.882
 51
11.118
  0
LINE
  8
0
 10
3.641
 20
-0.769
 11
3.837
 21
0.231
  0
LINE
  8
0
 10
3.543
 20
-0.231
 11
3.739
 21
0.769
  0
ARC
  8
0
 10
3.837
 20
0.750
 40
0.100
 50
11.118
 51
-168.882
  0
LINE
  8
0
 10
3.739
 20
0.731
 11
4.034
 21
-0.769
  0
LINE
  8
0
 10
3.935
 20
0.769
 11
4.230
 21
-0.731
  0
ARC
  8
0
 10
4.132
 20
-0.750
 40
0.100
 50
-168.882
 51
11.118
  0
LINE
  8
0
 10
4.230
 20
-0.769
 11
4.427
 21
0.231
  0
LINE
  8
0
 10
4.132
 20
-0.231
 11
4.329
 21
0.769
  0
ARC
  8
0
 10
4.427
 20
0.750
 40
0.100
 50
11.118
 51
-168.882
  0
LINE
  8
0
 10
4.329
 20
0.731
 11
4.624
 21
-0.769
  0
LINE
  8
0
 10
4.525
 20
0.769
 11
4.820
 21
-0.731
  0
ARC
  8
0
 10
4.722
 20
-0.750
 40
0.100
 50
-168.882
 51
11.118
  0
LINE
  8
0
 10
4.820
 20
-0.769
 11
5.016
 21
0.231
  0
LINE
  8
0
 10
4.722
 20
-0.231
 11
4.918
 21
0.769
  0
ARC
  8
0
 10
5.016
 20
0.750
 40
0.100
 50
11.118
 51
-168.882
  0
LINE
  8
0
 10
4.918
 20
0.731
 11
5.213
 21
-0.769
  0
LINE
  8
0
 10
5.115
 20
0.769
 11
5.409
 21
-0.731
  0
ARC
  8
0
 10
5.311
 20
-0.750
 40
0.100
 50
-168.882
 51
11.118
  0
LINE
  8
0
 10
5.409
 20
-0.769
 11
5.606
 21
0.231
  0
LINE
  8
0
 10
5.311
 20
-0.231
 11
5.508
 21
0.769
  0
ARC
  8
0
 10
5.606
 20
0.750
 40
0.100
 50
11.118
 51
-168.882
  0
LINE
  8
0
 10
5.508
 20
0.731
 11
5.803
 21
-0.769
  0
LINE
  8
0
 10
5.704
 20
0.769
 11
5.999
 21
-0.731
  0
ARC
  8
0
 10
5.901
 20
-0.750
 40
0.100
 50
-168.882
 51
11.118
  0
LINE
  8
0
 10
5.901
 20
-0.231
 11
6.097
 21
0.769
  0
LINE
  8
0
 10
5.999
 20
-0.769
 11
6.177
 21
0.135
  0
ARC
  8
0
 10
6.196
 20
0.750
 40
0.100
 50
7.595
 51
-172.405
  0
LINE
  8
0
 10
6.096
 20
0.737
 11
6.296
 21
-0.763
  0
LINE
  8
0
 10
6.295
 20
0.763
 11
6.496
 21
-0.743
  0
ARC
  8
0
 10
6.396
 20
-0.750
 40
0.100
 50
-172.405
 51
0.000
  0
CIRCLE
  8
0
 10
6.396
 20
0.750
 40
0.100
  0
LINE
  8
0
 10
6.496
 20
0.750
 11
6.496
 21
-0.750
  0
ENDSEC
  0
EOF
