  0
SECTION
  2
ENTITIES
  0
ARC
  8
0
 10
0.100
 20
0.750
 40
0.100
 50
0.000
 51
180.000
  0
ARC
  8
0
 10
0.100
 20
-0.750
 40
0.100
 50
180.000
 51
0.000
  0
LINE
  8
0
 10
0.000
 20
0.750
 11
0.000
 21
-0.750
  0
LINE
  8
0
 10
0.200
 20
0.750
 11
0.200
 21
-0.750
  0
LINE
  8
0
 10
0.199
 20
-0.763
 11
0.318
 21
0.131
  0
ARC
  8
0
 10
0.300
 20
0.750
 40
0.100
 50
10.989
 51
-169.011
  0
LINE
  8
0
 10
0.202
 20
0.731
 11
0.493
 21
-0.769
  0
LINE
  8
0
 10
0.398
 20
0.769
 11
0.689
 21
-0.731
  0
ARC
  8
0
 10
0.591
 20
-0.750
 40
0.100
 50
-169.011
 51
10.989
  0
LINE
  8
0
 10
0.689
 20
-0.769
 11
0.883
 21
0.225
  0
LINE
  8
0
 10
0.591
 20
-0.225
 11
0.784
 21
0.769
  0
ARC
  8
0
 10
0.883
 20
0.750
 40
0.100
 50
10.989
 51
-169.011
  0
LINE
  8
0
 10
0.784
 20
0.731
 11
1.076
 21
-0.769
  0
LINE
  8
0
 10
0.981
 20
0.769
 11
1.272
 21
-0.731
  0
ARC
  8
0
 10
1.174
 20
-0.750
 40
0.100
 50
-169.011
 51
10.989
  0
LINE
  8
0
 10
1.272
 20
-0.769
 11
1.465
 21
0.225
  0
LINE
  8
0
 10
1.174
 20
-0.225
 11
1.367
 21
0.769
  0
ARC
  8
0
 10
1.465
 20
0.750
 40
0.100
 50
10.989
 51
-169.011
  0
LINE
  8
0
 10
1.367
 20
0.731
 11
1.658
 21
-0.769
  0
LINE
  8
0
 10
1.563
 20
0.769
 11
1.855
 21
-0.731
  0
ARC
  8
0
 10
1.756
 20
-0.750
 40
0.100
 50
-169.011
 51
10.989
  0
LINE
  8
0
 10
1.855
 20
-0.769
 11
2.048
 21
0.225
  0
LINE
  8
0
 10
1.756
 20
-0.225
 11
1.949
 21
0.769
  0
ARC
  8
0
 10
2.048
 20
0.750
 40
0.100
 50
10.989
 51
-169.011
  0
LINE
  8
0
 10
1.949
 20
0.731
 11
2.241
 21
-0.769
  0
LINE
  8
0
 10
2.146
 20
0.769
 11
2.437
 21
-0.731
  0
ARC
  8
0
 10
2.339
 20
-0.750
 40
0.100
 50
-169.011
 51
10.989
  0
LINE
  8
0
 10
2.437
 20
-0.769
 11
2.630
 21
0.225
  0
LINE
  8
0
 10
2.339
 20
-0.225
 11
2.532
 21
0.769
  0
ARC
  8
0
 10
2.630
 20
0.750
 40
0.100
 50
10.989
 51
-169.011
  0
LINE
  8
0
 10
2.532
 20
0.731
 11
2.823
 21
-0.769
  0
LINE
  8
0
 10
2.728
 20
0.769
 11
3.020
 21
-0.731
  0
ARC
  8
0
 10
2.921
 20
-0.750
 40
0.100
 50
-169.011
 51
10.989
  0
LINE
  8
0
 10
3.020
 20
-0.769
 11
3.213
 21
0.225
  0
LINE
  8
0
 10
2.921
 20
-0.225
 11
3.115
 21
0.769
  0
ARC
  8
0
 10
3.213
 20
0.750
 40
0.100
 50
10.989
 51
-169.011
  0
LINE
  8
0
 10
3.115
 20
0.731
 11
3.406
 21
-0.769
  0
LINE
  8
0
 10
3.311
 20
0.769
 11
3.602
 21
-0.731
  0
ARC
  8
0
 10
3.504
 20
-0.750
 40
0.100
 50
-169.011
 51
10.989
  0
LINE
  8
0
 10
3.602
 20
-0.769
 11
3.795
 21
0.225
  0
LINE
  8
0
 10
3.504
 20
-0.225
 11
3.697
 21
0.769
  0
ARC
  8
0
 10
3.795
 20
0.750
 40
0.100
 50
10.989
 51
-169.011
  0
LINE
  8
0
 10
3.697
 20
0.731
 11
3.988
 21
-0.769
  0
LINE
  8
0
 10
3.893
 20
0.769
 11
4.185
 21
-0.731
  0
ARC
  8
0
 10
4.087
 20
-0.750
 40
0.100
 50
-169.011
 51
10.989
  0
LINE
  8
0
 10
4.185
 20
-0.769
 11
4.378
 21
0.225
  0
LINE
  8
0
 10
4.087
 20
-0.225
 11
4.280
 21
0.769
  0
ARC
  8
0
 10
4.378
 20
0.750
 40
0.100
 50
10.989
 51
-169.011
  0
LINE
  8
0
 10
4.280
 20
0.731
 11
4.571
 21
-0.769
  0
LINE
  8
0
 10
4.476
 20
0.769
 11
4.767
 21
-0.731
  0
ARC
  8
0
 10
4.669
 20
-0.750
 40
0.100
 50
-169.011
 51
10.989
  0
LINE
  8
0
 10
4.767
 20
-0.769
 11
4.960
 21
0.225
  0
LINE
  8
0
 10
4.669
 20
-0.225
 11
4.862
 21
0.769
  0
ARC
  8
0
 10
4.960
 20
0.750
 40
0.100
 50
10.989
 51
-169.011
  0
LINE
  8
0
 10
4.862
 20
0.731
 11
5.154
 21
-0.769
  0
LINE
  8
0
 10
5.059
 20
0.769
 11
5.350
 21
-0.731
  0
ARC
  8
0
 10
5.252
 20
-0.750
 40
0.100
 50
-169.011
 51
10.989
  0
LINE
  8
0
 10
5.350
 20
-0.769
 11
5.543
 21
0.225
  0
LINE
  8
0
 10
5.252
 20
-0.225
 11
5.445
 21
0.769
  0
ARC
  8
0
 10
5.543
 20
0.750
 40
0.100
 50
10.989
 51
-169.011
  0
LINE
  8
0
 10
5.445
 20
0.731
 11
5.736
 21
-0.769
  0
LINE
  8
0
 10
5.641
 20
0.769
 11
5.932
 21
-0.731
  0
ARC
  8
0
 10
5.834
 20
-0.750
 40
0.100
 50
-169.011
 51
10.989
  0
LINE
  8
0
 10
5.932
 20
-0.769
 11
6.126
 21
0.225
  0
LINE
  8
0
 10
5.834
 20
-0.225
 11
6.027
 21
0.769
  0
ARC
  8
0
 10
6.126
 20
0.750
 40
0.100
 50
10.989
 51
-169.011
  0
LINE
  8
0
 10
6.027
 20
0.731
 11
6.319
 21
-0.769
  0
LINE
  8
0
 10
6.224
 20
0.769
 11
6.515
 21
-0.731
  0
ARC
  8
0
 10
6.417
 20
-0.750
 40
0.100
 50
-169.011
 51
10.989
  0
LINE
  8
0
 10
6.515
 20
-0.769
 11
6.708
 21
0.225
  0
LINE
  8
0
 10
6.417
 20
-0.225
 11
6.610
 21
0.769
  0
ARC
  8
0
 10
6.708
 20
0.750
 40
0.100
 50
10.989
 51
-169.011
  0
LINE
  8
0
 10
6.610
 20
0.731
 11
6.901
 21
-0.769
  0
LINE
  8
0
 10
6.806
 20
0.769
 11
7.097
 21
-0.731
  0
ARC
  8
0
 10
6.999
 20
-0.750
 40
0.100
 50
-169.011
 51
10.989
  0
LINE
  8
0
 10
7.097
 20
-0.769
 11
7.291
 21
0.225
  0
LINE
  8
0
 10
6.999
 20
-0.225
 11
7.192
 21
0.769
  0
ARC
  8
0
 10
7.291
 20
0.750
 40
0.100
 50
10.989
 51
-169.011
  0
LINE
  8
0
 10
7.192
 20
0.731
 11
7.484
 21
-0.769
  0
LINE
  8
0
 10
7.389
 20
0.769
 11
7.680
 21
-0.731
  0
ARC
  8
0
 10
7.582
 20
-0.750
 40
0.100
 50
-169.011
 51
10.989
  0
LINE
  8
0
 10
7.680
 20
-0.769
 11
7.873
 21
0.225
  0
LINE
  8
0
 10
7.582
 20
-0.225
 11
7.775
 21
0.769
  0
ARC
  8
0
 10
7.873
 20
0.750
 40
0.100
 50
10.989
 51
-169.011
  0
LINE
  8
0
 10
7.775
 20
0.731
 11
8.066
 21
-0.769
  0
LINE
  8
0
 10
7.971
 20
0.769
 11
8.263
 21
-0.731
  0
ARC
  8
0
 10
8.164
 20
-0.750
 40
0.100
 50
-169.011
 51
10.989
  0
LINE
  8
0
 10
8.263
 20
-0.769
 11
8.456
 21
0.225
  0
LINE
  8
0
 10
8.164
 20
-0.225
 11
8.358
 21
0.769
  0
ARC
  8
0
 10
8.456
 20
0.750
 40
0.100
 50
10.989
 51
-169.011
  0
LINE
  8
0
 10
8.358
 20
0.731
 11
8.649
 21
-0.769
  0
LINE
  8
0
 10
8.554
 20
0.769
 11
8.845
 21
-0.731
  0
ARC
  8
0
 10
8.747
 20
-0.750
 40
0.100
 50
-169.011
 51
10.989
  0
LINE
  8
0
 10
8.845
 20
-0.769
 11
9.038
 21
0.225
  0
LINE
  8
0
 10
8.747
 20
-0.225
 11
8.940
 21
0.769
  0
ARC
  8
0
 10
9.038
 20
0.750
 40
0.100
 50
10.989
 51
-169.011
  0
LINE
  8
0
 10
8.940
 20
0.731
 11
9.231
 21
-0.769
  0
LINE
  8
0
 10
9.136
 20
0.769
 11
9.428
 21
-0.731
  0
ARC
  8
0
 10
9.330
 20
-0.750
 40
0.100
 50
-169.011
 51
10.989
  0
LINE
  8
0
 10
9.428
 20
-0.769
 11
9.621
 21
0.225
  0
LINE
  8
0
 10
9.330
 20
-0.225
 11
9.523
 21
0.769
  0
ARC
  8
0
 10
9.621
 20
0.750
 40
0.100
 50
10.989
 51
-169.011
  0
LINE
  8
0
 10
9.523
 20
0.731
 11
9.814
 21
-0.769
  0
LINE
  8
0
 10
9.719
 20
0.769
 11
10.010
 21
-0.731
  0
ARC
  8
0
 10
9.912
 20
-0.750
 40
0.100
 50
-169.011
 51
10.989
  0
LINE
  8
0
 10
10.010
 20
-0.769
 11
10.203
 21
0.225
  0
LINE
  8
0
 10
9.912
 20
-0.225
 11
10.105
 21
0.769
  0
ARC
  8
0
 10
10.203
 20
0.750
 40
0.100
 50
10.989
 51
-169.011
  0
LINE
  8
0
 10
10.105
 20
0.731
 11
10.396
 21
-0.769
  0
LINE
  8
0
 10
10.302
 20
0.769
 11
10.593
 21
-0.731
  0
ARC
  8
0
 10
10.495
 20
-0.750
 40
0.100
 50
-169.011
 51
10.989
  0
LINE
  8
0
 10
10.593
 20
-0.769
 11
10.786
 21
0.225
  0
LINE
  8
0
 10
10.495
 20
-0.225
 11
10.688
 21
0.769
  0
ARC
  8
0
 10
10.786
 20
0.750
 40
0.100
 50
10.989
 51
-169.011
  0
LINE
  8
0
 10
10.688
 20
0.731
 11
10.979
 21
-0.769
  0
LINE
  8
0
 10
10.884
 20
0.769
 11
11.175
 21
-0.731
  0
ARC
  8
0
 10
11.077
 20
-0.750
 40
0.100
 50
-169.011
 51
10.989
  0
LINE
  8
0
 10
11.175
 20
-0.769
 11
11.368
 21
0.225
  0
LINE
  8
0
 10
11.077
 20
-0.225
 11
11.270
 21
0.769
  0
ARC
  8
0
 10
11.368
 20
0.750
 40
0.100
 50
10.989
 51
-169.011
  0
LINE
  8
0
 10
11.270
 20
0.731
 11
11.562
 21
-0.769
  0
LINE
  8
0
 10
11.467
 20
0.769
 11
11.758
 21
-0.731
  0
ARC
  8
0
 10
11.660
 20
-0.750
 40
0.100
 50
-169.011
 51
10.989
  0
LINE
  8
0
 10
11.758
 20
-0.769
 11
11.951
 21
0.225
  0
LINE
  8
0
 10
11.660
 20
-0.225
 11
11.853
 21
0.769
  0
ARC
  8
0
 10
11.951
 20
0.750
 40
0.100
 50
10.989
 51
-169.011
  0
LINE
  8
0
 10
11.853
 20
0.731
 11
12.144
 21
-0.769
  0
LINE
  8
0
 10
12.049
 20
0.769
 11
12.340
 21
-0.731
  0
ARC
  8
0
 10
12.242
 20
-0.750
 40
0.100
 50
-169.011
 51
10.989
  0
LINE
  8
0
 10
12.340
 20
-0.769
 11
12.534
 21
0.225
  0
LINE
  8
0
 10
12.242
 20
-0.225
 11
12.435
 21
0.769
  0
ARC
  8
0
 10
12.534
 20
0.750
 40
0.100
 50
10.989
 51
-169.011
  0
LINE
  8
0
 10
12.435
 20
0.731
 11
12.727
 21
-0.769
  0
LINE
  8
0
 10
12.632
 20
0.769
 11
12.923
 21
-0.731
  0
ARC
  8
0
 10
12.825
 20
-0.750
 40
0.100
 50
-169.011
 51
10.989
  0
LINE
  8
0
 10
12.923
 20
-0.769
 11
13.116
 21
0.225
  0
LINE
  8
0
 10
12.825
 20
-0.225
 11
13.018
 21
0.769
  0
ARC
  8
0
 10
13.116
 20
0.750
 40
0.100
 50
10.989
 51
-169.011
  0
LINE
  8
0
 10
13.018
 20
0.731
 11
13.309
 21
-0.769
  0
LINE
  8
0
 10
13.214
 20
0.769
 11
13.506
 21
-0.731
  0
ARC
  8
0
 10
13.407
 20
-0.750
 40
0.100
 50
-169.011
 51
10.989
  0
LINE
  8
0
 10
13.407
 20
-0.225
 11
13.600
 21
0.769
  0
LINE
  8
0
 10
13.506
 20
-0.769
 11
13.680
 21
0.131
  0
ARC
  8
0
 10
13.699
 20
0.750
 40
0.100
 50
7.595
 51
-172.405
  0
LINE
  8
0
 10
13.600
 20
0.737
 11
13.800
 21
-0.763
  0
LINE
  8
0
 10
13.798
 20
0.763
 11
13.999
 21
-0.743
  0
ARC
  8
0
 10
13.899
 20
-0.750
 40
0.100
 50
-172.405
 51
0.000
  0
CIRCLE
  8
0
 10
13.899
 20
0.750
 40
0.100
  0
LINE
  8
0
 10
13.999
 20
0.750
 11
13.999
 21
-0.750
  0
ENDSEC
  0
EOF
