  0
SECTION
  2
ENTITIES
  0
ARC
  8
0
 10
0.450
 20
4.550
 40
0.450
 50
0.000
 51
180.000
  0
ARC
  8
0
 10
0.450
 20
-4.550
 40
0.450
 50
180.000
 51
0.000
  0
LINE
  8
0
 10
0.000
 20
4.550
 11
0.000
 21
-4.550
  0
LINE
  8
0
 10
0.900
 20
4.550
 11
0.900
 21
-4.550
  0
LINE
  8
0
 10
0.898
 20
-4.594
 11
1.524
 21
1.733
  0
ARC
  8
0
 10
1.350
 20
4.550
 40
0.450
 50
12.702
 51
-167.298
  0
LINE
  8
0
 10
0.911
 20
4.451
 11
2.962
 21
-4.649
  0
LINE
  8
0
 10
1.789
 20
4.649
 11
3.840
 21
-4.451
  0
ARC
  8
0
 10
3.401
 20
-4.550
 40
0.450
 50
-167.298
 51
12.702
  0
LINE
  8
0
 10
3.840
 20
-4.649
 11
5.452
 21
2.503
  0
LINE
  8
0
 10
3.401
 20
-2.503
 11
5.013
 21
4.649
  0
ARC
  8
0
 10
5.452
 20
4.550
 40
0.450
 50
12.702
 51
-167.298
  0
LINE
  8
0
 10
5.013
 20
4.451
 11
7.064
 21
-4.649
  0
LINE
  8
0
 10
5.891
 20
4.649
 11
7.942
 21
-4.451
  0
ARC
  8
0
 10
7.503
 20
-4.550
 40
0.450
 50
-167.298
 51
12.702
  0
LINE
  8
0
 10
7.942
 20
-4.649
 11
9.554
 21
2.503
  0
LINE
  8
0
 10
7.503
 20
-2.503
 11
9.115
 21
4.649
  0
ARC
  8
0
 10
9.554
 20
4.550
 40
0.450
 50
12.702
 51
-167.298
  0
LINE
  8
0
 10
9.115
 20
4.451
 11
11.166
 21
-4.649
  0
LINE
  8
0
 10
9.993
 20
4.649
 11
12.044
 21
-4.451
  0
ARC
  8
0
 10
11.605
 20
-4.550
 40
0.450
 50
-167.298
 51
12.702
  0
LINE
  8
0
 10
11.605
 20
-2.503
 11
13.217
 21
4.649
  0
LINE
  8
0
 10
12.044
 20
-4.649
 11
13.483
 21
1.733
  0
ARC
  8
0
 10
13.656
 20
4.550
 40
0.450
 50
5.648
 51
-174.352
  0
LINE
  8
0
 10
13.209
 20
4.506
 11
14.109
 21
-4.594
  0
LINE
  8
0
 10
14.104
 20
4.594
 11
15.006
 21
-4.528
  0
ARC
  8
0
 10
14.556
 20
-4.550
 40
0.450
 50
-174.352
 51
0.000
  0
CIRCLE
  8
0
 10
14.556
 20
4.550
 40
0.450
  0
LINE
  8
0
 10
15.006
 20
4.550
 11
15.006
 21
-4.550
  0
ENDSEC
  0
EOF
