  0
SECTION
  2
ENTITIES
  0
ARC
  8
0
 10
0.450
 20
4.550
 40
0.450
 50
0.000
 51
180.000
  0
ARC
  8
0
 10
0.450
 20
-4.550
 40
0.450
 50
180.000
 51
0.000
  0
LINE
  8
0
 10
0.000
 20
4.550
 11
0.000
 21
-4.550
  0
LINE
  8
0
 10
0.900
 20
4.550
 11
0.900
 21
-4.550
  0
LINE
  8
0
 10
0.898
 20
-4.594
 11
1.533
 21
1.831
  0
ARC
  8
0
 10
1.350
 20
4.550
 40
0.450
 50
13.363
 51
-166.637
  0
LINE
  8
0
 10
0.912
 20
4.446
 11
3.074
 21
-4.654
  0
LINE
  8
0
 10
1.788
 20
4.654
 11
3.949
 21
-4.446
  0
ARC
  8
0
 10
3.512
 20
-4.550
 40
0.450
 50
-166.637
 51
13.363
  0
LINE
  8
0
 10
3.949
 20
-4.654
 11
5.673
 21
2.603
  0
LINE
  8
0
 10
3.512
 20
-2.603
 11
5.235
 21
4.654
  0
ARC
  8
0
 10
5.673
 20
4.550
 40
0.450
 50
13.363
 51
-166.637
  0
LINE
  8
0
 10
5.235
 20
4.446
 11
7.397
 21
-4.654
  0
LINE
  8
0
 10
6.111
 20
4.654
 11
8.273
 21
-4.446
  0
ARC
  8
0
 10
7.835
 20
-4.550
 40
0.450
 50
-166.637
 51
13.363
  0
LINE
  8
0
 10
8.273
 20
-4.654
 11
9.997
 21
2.603
  0
LINE
  8
0
 10
7.835
 20
-2.603
 11
9.559
 21
4.654
  0
ARC
  8
0
 10
9.997
 20
4.550
 40
0.450
 50
13.363
 51
-166.637
  0
LINE
  8
0
 10
9.559
 20
4.446
 11
11.720
 21
-4.654
  0
LINE
  8
0
 10
10.434
 20
4.654
 11
12.596
 21
-4.446
  0
ARC
  8
0
 10
12.158
 20
-4.550
 40
0.450
 50
-166.637
 51
13.363
  0
LINE
  8
0
 10
12.596
 20
-4.654
 11
14.320
 21
2.603
  0
LINE
  8
0
 10
12.158
 20
-2.603
 11
13.882
 21
4.654
  0
ARC
  8
0
 10
14.320
 20
4.550
 40
0.450
 50
13.363
 51
-166.637
  0
LINE
  8
0
 10
13.882
 20
4.446
 11
16.044
 21
-4.654
  0
LINE
  8
0
 10
14.758
 20
4.654
 11
16.919
 21
-4.446
  0
ARC
  8
0
 10
16.482
 20
-4.550
 40
0.450
 50
-166.637
 51
13.363
  0
LINE
  8
0
 10
16.482
 20
-2.603
 11
18.205
 21
4.654
  0
LINE
  8
0
 10
16.919
 20
-4.654
 11
18.460
 21
1.831
  0
ARC
  8
0
 10
18.643
 20
4.550
 40
0.450
 50
5.648
 51
-174.352
  0
LINE
  8
0
 10
18.195
 20
4.506
 11
19.095
 21
-4.594
  0
LINE
  8
0
 10
19.091
 20
4.594
 11
19.993
 21
-4.528
  0
ARC
  8
0
 10
19.543
 20
-4.550
 40
0.450
 50
-174.352
 51
0.000
  0
CIRCLE
  8
0
 10
19.543
 20
4.550
 40
0.450
  0
LINE
  8
0
 10
19.993
 20
4.550
 11
19.993
 21
-4.550
  0
ENDSEC
  0
EOF
