  0
SECTION
  2
ENTITIES
  0
ARC
  8
0
 10
0.450
 20
4.550
 40
0.450
 50
0.000
 51
180.000
  0
ARC
  8
0
 10
0.450
 20
-4.550
 40
0.450
 50
180.000
 51
0.000
  0
LINE
  8
0
 10
0.000
 20
4.550
 11
0.000
 21
-4.550
  0
LINE
  8
0
 10
0.900
 20
4.550
 11
0.900
 21
-4.550
  0
LINE
  8
0
 10
0.898
 20
-4.594
 11
1.521
 21
1.710
  0
ARC
  8
0
 10
1.350
 20
4.550
 40
0.450
 50
12.555
 51
-167.445
  0
LINE
  8
0
 10
0.911
 20
4.452
 11
2.937
 21
-4.648
  0
LINE
  8
0
 10
1.789
 20
4.648
 11
3.816
 21
-4.452
  0
ARC
  8
0
 10
3.377
 20
-4.550
 40
0.450
 50
-167.445
 51
12.555
  0
LINE
  8
0
 10
3.816
 20
-4.648
 11
5.403
 21
2.480
  0
LINE
  8
0
 10
3.377
 20
-2.480
 11
4.964
 21
4.648
  0
ARC
  8
0
 10
5.403
 20
4.550
 40
0.450
 50
12.555
 51
-167.445
  0
LINE
  8
0
 10
4.964
 20
4.452
 11
6.991
 21
-4.648
  0
LINE
  8
0
 10
5.842
 20
4.648
 11
7.869
 21
-4.452
  0
ARC
  8
0
 10
7.430
 20
-4.550
 40
0.450
 50
-167.445
 51
12.555
  0
LINE
  8
0
 10
7.869
 20
-4.648
 11
9.456
 21
2.480
  0
LINE
  8
0
 10
7.430
 20
-2.480
 11
9.017
 21
4.648
  0
ARC
  8
0
 10
9.456
 20
4.550
 40
0.450
 50
12.555
 51
-167.445
  0
LINE
  8
0
 10
9.017
 20
4.452
 11
11.044
 21
-4.648
  0
LINE
  8
0
 10
9.896
 20
4.648
 11
11.922
 21
-4.452
  0
ARC
  8
0
 10
11.483
 20
-4.550
 40
0.450
 50
-167.445
 51
12.555
  0
LINE
  8
0
 10
11.922
 20
-4.648
 11
13.510
 21
2.480
  0
LINE
  8
0
 10
11.483
 20
-2.480
 11
13.070
 21
4.648
  0
ARC
  8
0
 10
13.510
 20
4.550
 40
0.450
 50
12.555
 51
-167.445
  0
LINE
  8
0
 10
13.070
 20
4.452
 11
15.097
 21
-4.648
  0
LINE
  8
0
 10
13.949
 20
4.648
 11
15.975
 21
-4.452
  0
ARC
  8
0
 10
15.536
 20
-4.550
 40
0.450
 50
-167.445
 51
12.555
  0
LINE
  8
0
 10
15.975
 20
-4.648
 11
17.563
 21
2.480
  0
LINE
  8
0
 10
15.536
 20
-2.480
 11
17.124
 21
4.648
  0
ARC
  8
0
 10
17.563
 20
4.550
 40
0.450
 50
12.555
 51
-167.445
  0
LINE
  8
0
 10
17.124
 20
4.452
 11
19.150
 21
-4.648
  0
LINE
  8
0
 10
18.002
 20
4.648
 11
20.029
 21
-4.452
  0
ARC
  8
0
 10
19.589
 20
-4.550
 40
0.450
 50
-167.445
 51
12.555
  0
LINE
  8
0
 10
20.029
 20
-4.648
 11
21.616
 21
2.480
  0
LINE
  8
0
 10
19.589
 20
-2.480
 11
21.177
 21
4.648
  0
ARC
  8
0
 10
21.616
 20
4.550
 40
0.450
 50
12.555
 51
-167.445
  0
LINE
  8
0
 10
21.177
 20
4.452
 11
23.203
 21
-4.648
  0
LINE
  8
0
 10
22.055
 20
4.648
 11
24.082
 21
-4.452
  0
ARC
  8
0
 10
23.643
 20
-4.550
 40
0.450
 50
-167.445
 51
12.555
  0
LINE
  8
0
 10
23.471
 20
-1.710
 11
24.095
 21
4.594
  0
LINE
  8
0
 10
24.093
 20
4.550
 11
24.093
 21
-4.550
  0
LINE
  8
0
 10
24.993
 20
4.550
 11
24.993
 21
-4.550
  0
ARC
  8
0
 10
24.543
 20
-4.550
 40
0.450
 50
180.000
 51
0.000
  0
ARC
  8
0
 10
24.543
 20
4.550
 40
0.450
 50
0.000
 51
180.000
  0
ENDSEC
  0
EOF
