  0
SECTION
  2
ENTITIES
  0
ARC
  8
0
 10
0.450
 20
4.550
 40
0.450
 50
0.000
 51
180.000
  0
ARC
  8
0
 10
0.450
 20
-4.550
 40
0.450
 50
180.000
 51
0.000
  0
LINE
  8
0
 10
0.000
 20
4.550
 11
0.000
 21
-4.550
  0
LINE
  8
0
 10
0.900
 20
4.550
 11
0.900
 21
-4.550
  0
LINE
  8
0
 10
0.898
 20
-4.594
 11
1.528
 21
1.776
  0
ARC
  8
0
 10
1.350
 20
4.550
 40
0.450
 50
12.982
 51
-167.018
  0
LINE
  8
0
 10
0.912
 20
4.449
 11
3.009
 21
-4.651
  0
LINE
  8
0
 10
1.788
 20
4.651
 11
3.886
 21
-4.449
  0
ARC
  8
0
 10
3.448
 20
-4.550
 40
0.450
 50
-167.018
 51
12.982
  0
LINE
  8
0
 10
3.886
 20
-4.651
 11
5.546
 21
2.547
  0
LINE
  8
0
 10
3.448
 20
-2.547
 11
5.107
 21
4.651
  0
ARC
  8
0
 10
5.546
 20
4.550
 40
0.450
 50
12.982
 51
-167.018
  0
LINE
  8
0
 10
5.107
 20
4.449
 11
7.205
 21
-4.651
  0
LINE
  8
0
 10
5.984
 20
4.651
 11
8.082
 21
-4.449
  0
ARC
  8
0
 10
7.644
 20
-4.550
 40
0.450
 50
-167.018
 51
12.982
  0
LINE
  8
0
 10
8.082
 20
-4.651
 11
9.742
 21
2.547
  0
LINE
  8
0
 10
7.644
 20
-2.547
 11
9.303
 21
4.651
  0
ARC
  8
0
 10
9.742
 20
4.550
 40
0.450
 50
12.982
 51
-167.018
  0
LINE
  8
0
 10
9.303
 20
4.449
 11
11.401
 21
-4.651
  0
LINE
  8
0
 10
10.180
 20
4.651
 11
12.278
 21
-4.449
  0
ARC
  8
0
 10
11.839
 20
-4.550
 40
0.450
 50
-167.018
 51
12.982
  0
LINE
  8
0
 10
12.278
 20
-4.651
 11
13.937
 21
2.547
  0
LINE
  8
0
 10
11.839
 20
-2.547
 11
13.499
 21
4.651
  0
ARC
  8
0
 10
13.937
 20
4.550
 40
0.450
 50
12.982
 51
-167.018
  0
LINE
  8
0
 10
13.499
 20
4.449
 11
15.597
 21
-4.651
  0
LINE
  8
0
 10
14.376
 20
4.651
 11
16.474
 21
-4.449
  0
ARC
  8
0
 10
16.035
 20
-4.550
 40
0.450
 50
-167.018
 51
12.982
  0
LINE
  8
0
 10
16.474
 20
-4.651
 11
18.133
 21
2.547
  0
LINE
  8
0
 10
16.035
 20
-2.547
 11
17.695
 21
4.651
  0
ARC
  8
0
 10
18.133
 20
4.550
 40
0.450
 50
12.982
 51
-167.018
  0
LINE
  8
0
 10
17.695
 20
4.449
 11
19.793
 21
-4.651
  0
LINE
  8
0
 10
18.572
 20
4.651
 11
20.670
 21
-4.449
  0
ARC
  8
0
 10
20.231
 20
-4.550
 40
0.450
 50
-167.018
 51
12.982
  0
LINE
  8
0
 10
20.670
 20
-4.651
 11
22.329
 21
2.547
  0
LINE
  8
0
 10
20.231
 20
-2.547
 11
21.890
 21
4.651
  0
ARC
  8
0
 10
22.329
 20
4.550
 40
0.450
 50
12.982
 51
-167.018
  0
LINE
  8
0
 10
21.890
 20
4.449
 11
23.988
 21
-4.651
  0
LINE
  8
0
 10
22.767
 20
4.651
 11
24.865
 21
-4.449
  0
ARC
  8
0
 10
24.427
 20
-4.550
 40
0.450
 50
-167.018
 51
12.982
  0
LINE
  8
0
 10
24.865
 20
-4.651
 11
26.525
 21
2.547
  0
LINE
  8
0
 10
24.427
 20
-2.547
 11
26.086
 21
4.651
  0
ARC
  8
0
 10
26.525
 20
4.550
 40
0.450
 50
12.982
 51
-167.018
  0
LINE
  8
0
 10
26.086
 20
4.449
 11
28.184
 21
-4.651
  0
LINE
  8
0
 10
26.963
 20
4.651
 11
29.061
 21
-4.449
  0
ARC
  8
0
 10
28.623
 20
-4.550
 40
0.450
 50
-167.018
 51
12.982
  0
LINE
  8
0
 10
28.445
 20
-1.776
 11
29.075
 21
4.594
  0
LINE
  8
0
 10
29.073
 20
4.550
 11
29.073
 21
-4.550
  0
LINE
  8
0
 10
29.973
 20
4.550
 11
29.973
 21
-4.550
  0
ARC
  8
0
 10
29.523
 20
-4.550
 40
0.450
 50
180.000
 51
0.000
  0
ARC
  8
0
 10
29.523
 20
4.550
 40
0.450
 50
0.000
 51
180.000
  0
ENDSEC
  0
EOF
