  0
SECTION
  2
ENTITIES
  0
ARC
  8
0
 10
0.450
 20
4.550
 40
0.450
 50
0.000
 51
180.000
  0
ARC
  8
0
 10
0.450
 20
-4.550
 40
0.450
 50
180.000
 51
0.000
  0
LINE
  8
0
 10
0.000
 20
4.550
 11
0.000
 21
-4.550
  0
LINE
  8
0
 10
0.900
 20
4.550
 11
0.900
 21
-4.550
  0
LINE
  8
0
 10
0.898
 20
-4.594
 11
1.526
 21
1.754
  0
ARC
  8
0
 10
1.350
 20
4.550
 40
0.450
 50
12.837
 51
-167.163
  0
LINE
  8
0
 10
0.911
 20
4.450
 11
2.985
 21
-4.650
  0
LINE
  8
0
 10
1.789
 20
4.650
 11
3.862
 21
-4.450
  0
ARC
  8
0
 10
3.424
 20
-4.550
 40
0.450
 50
-167.163
 51
12.837
  0
LINE
  8
0
 10
3.862
 20
-4.650
 11
5.497
 21
2.525
  0
LINE
  8
0
 10
3.424
 20
-2.525
 11
5.059
 21
4.650
  0
ARC
  8
0
 10
5.497
 20
4.550
 40
0.450
 50
12.837
 51
-167.163
  0
LINE
  8
0
 10
5.059
 20
4.450
 11
7.132
 21
-4.650
  0
LINE
  8
0
 10
5.936
 20
4.650
 11
8.010
 21
-4.450
  0
ARC
  8
0
 10
7.571
 20
-4.550
 40
0.450
 50
-167.163
 51
12.837
  0
LINE
  8
0
 10
8.010
 20
-4.650
 11
9.645
 21
2.525
  0
LINE
  8
0
 10
7.571
 20
-2.525
 11
9.206
 21
4.650
  0
ARC
  8
0
 10
9.645
 20
4.550
 40
0.450
 50
12.837
 51
-167.163
  0
LINE
  8
0
 10
9.206
 20
4.450
 11
11.280
 21
-4.650
  0
LINE
  8
0
 10
10.083
 20
4.650
 11
12.157
 21
-4.450
  0
ARC
  8
0
 10
11.718
 20
-4.550
 40
0.450
 50
-167.163
 51
12.837
  0
LINE
  8
0
 10
12.157
 20
-4.650
 11
13.792
 21
2.525
  0
LINE
  8
0
 10
11.718
 20
-2.525
 11
13.353
 21
4.650
  0
ARC
  8
0
 10
13.792
 20
4.550
 40
0.450
 50
12.837
 51
-167.163
  0
LINE
  8
0
 10
13.353
 20
4.450
 11
15.427
 21
-4.650
  0
LINE
  8
0
 10
14.231
 20
4.650
 11
16.304
 21
-4.450
  0
ARC
  8
0
 10
15.866
 20
-4.550
 40
0.450
 50
-167.163
 51
12.837
  0
LINE
  8
0
 10
16.304
 20
-4.650
 11
17.939
 21
2.525
  0
LINE
  8
0
 10
15.866
 20
-2.525
 11
17.501
 21
4.650
  0
ARC
  8
0
 10
17.939
 20
4.550
 40
0.450
 50
12.837
 51
-167.163
  0
LINE
  8
0
 10
17.501
 20
4.450
 11
19.574
 21
-4.650
  0
LINE
  8
0
 10
18.378
 20
4.650
 11
20.452
 21
-4.450
  0
ARC
  8
0
 10
20.013
 20
-4.550
 40
0.450
 50
-167.163
 51
12.837
  0
LINE
  8
0
 10
20.452
 20
-4.650
 11
22.087
 21
2.525
  0
LINE
  8
0
 10
20.013
 20
-2.525
 11
21.648
 21
4.650
  0
ARC
  8
0
 10
22.087
 20
4.550
 40
0.450
 50
12.837
 51
-167.163
  0
LINE
  8
0
 10
21.648
 20
4.450
 11
23.722
 21
-4.650
  0
LINE
  8
0
 10
22.525
 20
4.650
 11
24.599
 21
-4.450
  0
ARC
  8
0
 10
24.160
 20
-4.550
 40
0.450
 50
-167.163
 51
12.837
  0
LINE
  8
0
 10
24.599
 20
-4.650
 11
26.234
 21
2.525
  0
LINE
  8
0
 10
24.160
 20
-2.525
 11
25.795
 21
4.650
  0
ARC
  8
0
 10
26.234
 20
4.550
 40
0.450
 50
12.837
 51
-167.163
  0
LINE
  8
0
 10
25.795
 20
4.450
 11
27.869
 21
-4.650
  0
LINE
  8
0
 10
26.673
 20
4.650
 11
28.746
 21
-4.450
  0
ARC
  8
0
 10
28.308
 20
-4.550
 40
0.450
 50
-167.163
 51
12.837
  0
LINE
  8
0
 10
28.746
 20
-4.650
 11
30.381
 21
2.525
  0
LINE
  8
0
 10
28.308
 20
-2.525
 11
29.943
 21
4.650
  0
ARC
  8
0
 10
30.381
 20
4.550
 40
0.450
 50
12.837
 51
-167.163
  0
LINE
  8
0
 10
29.943
 20
4.450
 11
32.016
 21
-4.650
  0
LINE
  8
0
 10
30.820
 20
4.650
 11
32.894
 21
-4.450
  0
ARC
  8
0
 10
32.455
 20
-4.550
 40
0.450
 50
-167.163
 51
12.837
  0
LINE
  8
0
 10
32.894
 20
-4.650
 11
34.529
 21
2.525
  0
LINE
  8
0
 10
32.455
 20
-2.525
 11
34.090
 21
4.650
  0
ARC
  8
0
 10
34.529
 20
4.550
 40
0.450
 50
12.837
 51
-167.163
  0
LINE
  8
0
 10
34.090
 20
4.450
 11
36.163
 21
-4.650
  0
LINE
  8
0
 10
34.967
 20
4.650
 11
37.041
 21
-4.450
  0
ARC
  8
0
 10
36.602
 20
-4.550
 40
0.450
 50
-167.163
 51
12.837
  0
LINE
  8
0
 10
36.602
 20
-2.525
 11
38.237
 21
4.650
  0
LINE
  8
0
 10
37.041
 20
-4.650
 11
38.500
 21
1.754
  0
ARC
  8
0
 10
38.676
 20
4.550
 40
0.450
 50
5.648
 51
-174.352
  0
LINE
  8
0
 10
38.228
 20
4.506
 11
39.128
 21
-4.594
  0
LINE
  8
0
 10
39.124
 20
4.594
 11
40.026
 21
-4.528
  0
ARC
  8
0
 10
39.576
 20
-4.550
 40
0.450
 50
-174.352
 51
0.000
  0
CIRCLE
  8
0
 10
39.576
 20
4.550
 40
0.450
  0
LINE
  8
0
 10
40.026
 20
4.550
 11
40.026
 21
-4.550
  0
ENDSEC
  0
EOF
