  0
SECTION
  2
ENTITIES
  0
ARC
  8
0
 10
0.450
 20
4.550
 40
0.450
 50
0.000
 51
180.000
  0
ARC
  8
0
 10
0.450
 20
-4.550
 40
0.450
 50
180.000
 51
0.000
  0
LINE
  8
0
 10
0.000
 20
4.550
 11
0.000
 21
-4.550
  0
LINE
  8
0
 10
0.900
 20
4.550
 11
0.900
 21
-4.550
  0
LINE
  8
0
 10
0.898
 20
-4.594
 11
1.524
 21
1.740
  0
ARC
  8
0
 10
1.350
 20
4.550
 40
0.450
 50
12.744
 51
-167.256
  0
LINE
  8
0
 10
0.911
 20
4.451
 11
2.969
 21
-4.649
  0
LINE
  8
0
 10
1.789
 20
4.649
 11
3.847
 21
-4.451
  0
ARC
  8
0
 10
3.408
 20
-4.550
 40
0.450
 50
-167.256
 51
12.744
  0
LINE
  8
0
 10
3.847
 20
-4.649
 11
5.466
 21
2.510
  0
LINE
  8
0
 10
3.408
 20
-2.510
 11
5.027
 21
4.649
  0
ARC
  8
0
 10
5.466
 20
4.550
 40
0.450
 50
12.744
 51
-167.256
  0
LINE
  8
0
 10
5.027
 20
4.451
 11
7.086
 21
-4.649
  0
LINE
  8
0
 10
5.905
 20
4.649
 11
7.964
 21
-4.451
  0
ARC
  8
0
 10
7.525
 20
-4.550
 40
0.450
 50
-167.256
 51
12.744
  0
LINE
  8
0
 10
7.964
 20
-4.649
 11
9.583
 21
2.510
  0
LINE
  8
0
 10
7.525
 20
-2.510
 11
9.144
 21
4.649
  0
ARC
  8
0
 10
9.583
 20
4.550
 40
0.450
 50
12.744
 51
-167.256
  0
LINE
  8
0
 10
9.144
 20
4.451
 11
11.202
 21
-4.649
  0
LINE
  8
0
 10
10.022
 20
4.649
 11
12.080
 21
-4.451
  0
ARC
  8
0
 10
11.641
 20
-4.550
 40
0.450
 50
-167.256
 51
12.744
  0
LINE
  8
0
 10
12.080
 20
-4.649
 11
13.699
 21
2.510
  0
LINE
  8
0
 10
11.641
 20
-2.510
 11
13.260
 21
4.649
  0
ARC
  8
0
 10
13.699
 20
4.550
 40
0.450
 50
12.744
 51
-167.256
  0
LINE
  8
0
 10
13.260
 20
4.451
 11
15.318
 21
-4.649
  0
LINE
  8
0
 10
14.138
 20
4.649
 11
16.196
 21
-4.451
  0
ARC
  8
0
 10
15.757
 20
-4.550
 40
0.450
 50
-167.256
 51
12.744
  0
LINE
  8
0
 10
16.196
 20
-4.649
 11
17.816
 21
2.510
  0
LINE
  8
0
 10
15.757
 20
-2.510
 11
17.377
 21
4.649
  0
ARC
  8
0
 10
17.816
 20
4.550
 40
0.450
 50
12.744
 51
-167.256
  0
LINE
  8
0
 10
17.377
 20
4.451
 11
19.435
 21
-4.649
  0
LINE
  8
0
 10
18.254
 20
4.649
 11
20.313
 21
-4.451
  0
ARC
  8
0
 10
19.874
 20
-4.550
 40
0.450
 50
-167.256
 51
12.744
  0
LINE
  8
0
 10
20.313
 20
-4.649
 11
21.932
 21
2.510
  0
LINE
  8
0
 10
19.874
 20
-2.510
 11
21.493
 21
4.649
  0
ARC
  8
0
 10
21.932
 20
4.550
 40
0.450
 50
12.744
 51
-167.256
  0
LINE
  8
0
 10
21.493
 20
4.451
 11
23.551
 21
-4.649
  0
LINE
  8
0
 10
22.371
 20
4.649
 11
24.429
 21
-4.451
  0
ARC
  8
0
 10
23.990
 20
-4.550
 40
0.450
 50
-167.256
 51
12.744
  0
LINE
  8
0
 10
24.429
 20
-4.649
 11
26.048
 21
2.510
  0
LINE
  8
0
 10
23.990
 20
-2.510
 11
25.609
 21
4.649
  0
ARC
  8
0
 10
26.048
 20
4.550
 40
0.450
 50
12.744
 51
-167.256
  0
LINE
  8
0
 10
25.609
 20
4.451
 11
27.668
 21
-4.649
  0
LINE
  8
0
 10
26.487
 20
4.649
 11
28.545
 21
-4.451
  0
ARC
  8
0
 10
28.107
 20
-4.550
 40
0.450
 50
-167.256
 51
12.744
  0
LINE
  8
0
 10
28.545
 20
-4.649
 11
30.165
 21
2.510
  0
LINE
  8
0
 10
28.107
 20
-2.510
 11
29.726
 21
4.649
  0
ARC
  8
0
 10
30.165
 20
4.550
 40
0.450
 50
12.744
 51
-167.256
  0
LINE
  8
0
 10
29.726
 20
4.451
 11
31.784
 21
-4.649
  0
LINE
  8
0
 10
30.604
 20
4.649
 11
32.662
 21
-4.451
  0
ARC
  8
0
 10
32.223
 20
-4.550
 40
0.450
 50
-167.256
 51
12.744
  0
LINE
  8
0
 10
32.662
 20
-4.649
 11
34.281
 21
2.510
  0
LINE
  8
0
 10
32.223
 20
-2.510
 11
33.842
 21
4.649
  0
ARC
  8
0
 10
34.281
 20
4.550
 40
0.450
 50
12.744
 51
-167.256
  0
LINE
  8
0
 10
33.842
 20
4.451
 11
35.900
 21
-4.649
  0
LINE
  8
0
 10
34.720
 20
4.649
 11
36.778
 21
-4.451
  0
ARC
  8
0
 10
36.339
 20
-4.550
 40
0.450
 50
-167.256
 51
12.744
  0
LINE
  8
0
 10
36.778
 20
-4.649
 11
38.398
 21
2.510
  0
LINE
  8
0
 10
36.339
 20
-2.510
 11
37.959
 21
4.649
  0
ARC
  8
0
 10
38.398
 20
4.550
 40
0.450
 50
12.744
 51
-167.256
  0
LINE
  8
0
 10
37.959
 20
4.451
 11
40.017
 21
-4.649
  0
LINE
  8
0
 10
38.836
 20
4.649
 11
40.895
 21
-4.451
  0
ARC
  8
0
 10
40.456
 20
-4.550
 40
0.450
 50
-167.256
 51
12.744
  0
LINE
  8
0
 10
40.895
 20
-4.649
 11
42.514
 21
2.510
  0
LINE
  8
0
 10
40.456
 20
-2.510
 11
42.075
 21
4.649
  0
ARC
  8
0
 10
42.514
 20
4.550
 40
0.450
 50
12.744
 51
-167.256
  0
LINE
  8
0
 10
42.075
 20
4.451
 11
44.133
 21
-4.649
  0
LINE
  8
0
 10
42.953
 20
4.649
 11
45.011
 21
-4.451
  0
ARC
  8
0
 10
44.572
 20
-4.550
 40
0.450
 50
-167.256
 51
12.744
  0
LINE
  8
0
 10
45.011
 20
-4.649
 11
46.630
 21
2.510
  0
LINE
  8
0
 10
44.572
 20
-2.510
 11
46.191
 21
4.649
  0
ARC
  8
0
 10
46.630
 20
4.550
 40
0.450
 50
12.744
 51
-167.256
  0
LINE
  8
0
 10
46.191
 20
4.451
 11
48.250
 21
-4.649
  0
LINE
  8
0
 10
47.069
 20
4.649
 11
49.127
 21
-4.451
  0
ARC
  8
0
 10
48.689
 20
-4.550
 40
0.450
 50
-167.256
 51
12.744
  0
LINE
  8
0
 10
48.514
 20
-1.740
 11
49.141
 21
4.594
  0
LINE
  8
0
 10
49.139
 20
4.550
 11
49.139
 21
-4.550
  0
LINE
  8
0
 10
50.039
 20
4.550
 11
50.039
 21
-4.550
  0
ARC
  8
0
 10
49.589
 20
-4.550
 40
0.450
 50
180.000
 51
0.000
  0
ARC
  8
0
 10
49.589
 20
4.550
 40
0.450
 50
0.000
 51
180.000
  0
ENDSEC
  0
EOF
