  0
SECTION
  2
ENTITIES
  0
ARC
  8
0
 10
0.450
 20
4.550
 40
0.450
 50
0.000
 51
180.000
  0
ARC
  8
0
 10
0.450
 20
-4.550
 40
0.450
 50
180.000
 51
0.000
  0
LINE
  8
0
 10
0.000
 20
4.550
 11
0.000
 21
-4.550
  0
LINE
  8
0
 10
0.900
 20
4.550
 11
0.900
 21
-4.550
  0
LINE
  8
0
 10
0.898
 20
-4.594
 11
1.526
 21
1.756
  0
ARC
  8
0
 10
1.350
 20
4.550
 40
0.450
 50
12.853
 51
-167.147
  0
LINE
  8
0
 10
0.911
 20
4.450
 11
2.988
 21
-4.650
  0
LINE
  8
0
 10
1.789
 20
4.650
 11
3.865
 21
-4.450
  0
ARC
  8
0
 10
3.426
 20
-4.550
 40
0.450
 50
-167.147
 51
12.853
  0
LINE
  8
0
 10
3.865
 20
-4.650
 11
5.503
 21
2.527
  0
LINE
  8
0
 10
3.426
 20
-2.527
 11
5.064
 21
4.650
  0
ARC
  8
0
 10
5.503
 20
4.550
 40
0.450
 50
12.853
 51
-167.147
  0
LINE
  8
0
 10
5.064
 20
4.450
 11
7.140
 21
-4.650
  0
LINE
  8
0
 10
5.942
 20
4.650
 11
8.018
 21
-4.450
  0
ARC
  8
0
 10
7.579
 20
-4.550
 40
0.450
 50
-167.147
 51
12.853
  0
LINE
  8
0
 10
8.018
 20
-4.650
 11
9.656
 21
2.527
  0
LINE
  8
0
 10
7.579
 20
-2.527
 11
9.217
 21
4.650
  0
ARC
  8
0
 10
9.656
 20
4.550
 40
0.450
 50
12.853
 51
-167.147
  0
LINE
  8
0
 10
9.217
 20
4.450
 11
11.293
 21
-4.650
  0
LINE
  8
0
 10
10.094
 20
4.650
 11
12.171
 21
-4.450
  0
ARC
  8
0
 10
11.732
 20
-4.550
 40
0.450
 50
-167.147
 51
12.853
  0
LINE
  8
0
 10
12.171
 20
-4.650
 11
13.808
 21
2.527
  0
LINE
  8
0
 10
11.732
 20
-2.527
 11
13.370
 21
4.650
  0
ARC
  8
0
 10
13.808
 20
4.550
 40
0.450
 50
12.853
 51
-167.147
  0
LINE
  8
0
 10
13.370
 20
4.450
 11
15.446
 21
-4.650
  0
LINE
  8
0
 10
14.247
 20
4.650
 11
16.324
 21
-4.450
  0
ARC
  8
0
 10
15.885
 20
-4.550
 40
0.450
 50
-167.147
 51
12.853
  0
LINE
  8
0
 10
16.324
 20
-4.650
 11
17.961
 21
2.527
  0
LINE
  8
0
 10
15.885
 20
-2.527
 11
17.522
 21
4.650
  0
ARC
  8
0
 10
17.961
 20
4.550
 40
0.450
 50
12.853
 51
-167.147
  0
LINE
  8
0
 10
17.522
 20
4.450
 11
19.599
 21
-4.650
  0
LINE
  8
0
 10
18.400
 20
4.650
 11
20.476
 21
-4.450
  0
ARC
  8
0
 10
20.038
 20
-4.550
 40
0.450
 50
-167.147
 51
12.853
  0
LINE
  8
0
 10
20.476
 20
-4.650
 11
22.114
 21
2.527
  0
LINE
  8
0
 10
20.038
 20
-2.527
 11
21.675
 21
4.650
  0
ARC
  8
0
 10
22.114
 20
4.550
 40
0.450
 50
12.853
 51
-167.147
  0
LINE
  8
0
 10
21.675
 20
4.450
 11
23.752
 21
-4.650
  0
LINE
  8
0
 10
22.553
 20
4.650
 11
24.629
 21
-4.450
  0
ARC
  8
0
 10
24.190
 20
-4.550
 40
0.450
 50
-167.147
 51
12.853
  0
LINE
  8
0
 10
24.629
 20
-4.650
 11
26.267
 21
2.527
  0
LINE
  8
0
 10
24.190
 20
-2.527
 11
25.828
 21
4.650
  0
ARC
  8
0
 10
26.267
 20
4.550
 40
0.450
 50
12.853
 51
-167.147
  0
LINE
  8
0
 10
25.828
 20
4.450
 11
27.905
 21
-4.650
  0
LINE
  8
0
 10
26.706
 20
4.650
 11
28.782
 21
-4.450
  0
ARC
  8
0
 10
28.343
 20
-4.550
 40
0.450
 50
-167.147
 51
12.853
  0
LINE
  8
0
 10
28.782
 20
-4.650
 11
30.420
 21
2.527
  0
LINE
  8
0
 10
28.343
 20
-2.527
 11
29.981
 21
4.650
  0
ARC
  8
0
 10
30.420
 20
4.550
 40
0.450
 50
12.853
 51
-167.147
  0
LINE
  8
0
 10
29.981
 20
4.450
 11
32.057
 21
-4.650
  0
LINE
  8
0
 10
30.858
 20
4.650
 11
32.935
 21
-4.450
  0
ARC
  8
0
 10
32.496
 20
-4.550
 40
0.450
 50
-167.147
 51
12.853
  0
LINE
  8
0
 10
32.935
 20
-4.650
 11
34.572
 21
2.527
  0
LINE
  8
0
 10
32.496
 20
-2.527
 11
34.134
 21
4.650
  0
ARC
  8
0
 10
34.572
 20
4.550
 40
0.450
 50
12.853
 51
-167.147
  0
LINE
  8
0
 10
34.134
 20
4.450
 11
36.210
 21
-4.650
  0
LINE
  8
0
 10
35.011
 20
4.650
 11
37.088
 21
-4.450
  0
ARC
  8
0
 10
36.649
 20
-4.550
 40
0.450
 50
-167.147
 51
12.853
  0
LINE
  8
0
 10
37.088
 20
-4.650
 11
38.725
 21
2.527
  0
LINE
  8
0
 10
36.649
 20
-2.527
 11
38.287
 21
4.650
  0
ARC
  8
0
 10
38.725
 20
4.550
 40
0.450
 50
12.853
 51
-167.147
  0
LINE
  8
0
 10
38.287
 20
4.450
 11
40.363
 21
-4.650
  0
LINE
  8
0
 10
39.164
 20
4.650
 11
41.240
 21
-4.450
  0
ARC
  8
0
 10
40.802
 20
-4.550
 40
0.450
 50
-167.147
 51
12.853
  0
LINE
  8
0
 10
41.240
 20
-4.650
 11
42.878
 21
2.527
  0
LINE
  8
0
 10
40.802
 20
-2.527
 11
42.439
 21
4.650
  0
ARC
  8
0
 10
42.878
 20
4.550
 40
0.450
 50
12.853
 51
-167.147
  0
LINE
  8
0
 10
42.439
 20
4.450
 11
44.516
 21
-4.650
  0
LINE
  8
0
 10
43.317
 20
4.650
 11
45.393
 21
-4.450
  0
ARC
  8
0
 10
44.954
 20
-4.550
 40
0.450
 50
-167.147
 51
12.853
  0
LINE
  8
0
 10
45.393
 20
-4.650
 11
47.031
 21
2.527
  0
LINE
  8
0
 10
44.954
 20
-2.527
 11
46.592
 21
4.650
  0
ARC
  8
0
 10
47.031
 20
4.550
 40
0.450
 50
12.853
 51
-167.147
  0
LINE
  8
0
 10
46.592
 20
4.450
 11
48.669
 21
-4.650
  0
LINE
  8
0
 10
47.470
 20
4.650
 11
49.546
 21
-4.450
  0
ARC
  8
0
 10
49.107
 20
-4.550
 40
0.450
 50
-167.147
 51
12.853
  0
LINE
  8
0
 10
49.546
 20
-4.650
 11
51.184
 21
2.527
  0
LINE
  8
0
 10
49.107
 20
-2.527
 11
50.745
 21
4.650
  0
ARC
  8
0
 10
51.184
 20
4.550
 40
0.450
 50
12.853
 51
-167.147
  0
LINE
  8
0
 10
50.745
 20
4.450
 11
52.821
 21
-4.650
  0
LINE
  8
0
 10
51.622
 20
4.650
 11
53.699
 21
-4.450
  0
ARC
  8
0
 10
53.260
 20
-4.550
 40
0.450
 50
-167.147
 51
12.853
  0
LINE
  8
0
 10
53.699
 20
-4.650
 11
55.336
 21
2.527
  0
LINE
  8
0
 10
53.260
 20
-2.527
 11
54.898
 21
4.650
  0
ARC
  8
0
 10
55.336
 20
4.550
 40
0.450
 50
12.853
 51
-167.147
  0
LINE
  8
0
 10
54.898
 20
4.450
 11
56.974
 21
-4.650
  0
LINE
  8
0
 10
55.775
 20
4.650
 11
57.852
 21
-4.450
  0
ARC
  8
0
 10
57.413
 20
-4.550
 40
0.450
 50
-167.147
 51
12.853
  0
LINE
  8
0
 10
57.852
 20
-4.650
 11
59.489
 21
2.527
  0
LINE
  8
0
 10
57.413
 20
-2.527
 11
59.051
 21
4.650
  0
ARC
  8
0
 10
59.489
 20
4.550
 40
0.450
 50
12.853
 51
-167.147
  0
LINE
  8
0
 10
59.051
 20
4.450
 11
61.127
 21
-4.650
  0
LINE
  8
0
 10
59.928
 20
4.650
 11
62.004
 21
-4.450
  0
ARC
  8
0
 10
61.566
 20
-4.550
 40
0.450
 50
-167.147
 51
12.853
  0
LINE
  8
0
 10
61.566
 20
-2.527
 11
63.203
 21
4.650
  0
LINE
  8
0
 10
62.004
 20
-4.650
 11
63.466
 21
1.756
  0
ARC
  8
0
 10
63.642
 20
4.550
 40
0.450
 50
5.648
 51
-174.352
  0
LINE
  8
0
 10
63.194
 20
4.506
 11
64.094
 21
-4.594
  0
LINE
  8
0
 10
64.090
 20
4.594
 11
64.992
 21
-4.528
  0
ARC
  8
0
 10
64.542
 20
-4.550
 40
0.450
 50
-174.352
 51
0.000
  0
CIRCLE
  8
0
 10
64.542
 20
4.550
 40
0.450
  0
LINE
  8
0
 10
64.992
 20
4.550
 11
64.992
 21
-4.550
  0
ENDSEC
  0
EOF
