  0
SECTION
  2
ENTITIES
  0
ARC
  8
0
 10
0.450
 20
4.550
 40
0.450
 50
0.000
 51
180.000
  0
ARC
  8
0
 10
0.450
 20
-4.550
 40
0.450
 50
180.000
 51
0.000
  0
LINE
  8
0
 10
0.000
 20
4.550
 11
0.000
 21
-4.550
  0
LINE
  8
0
 10
0.900
 20
4.550
 11
0.900
 21
-4.550
  0
LINE
  8
0
 10
0.898
 20
-4.594
 11
1.522
 21
1.719
  0
ARC
  8
0
 10
1.350
 20
4.550
 40
0.450
 50
12.608
 51
-167.392
  0
LINE
  8
0
 10
0.911
 20
4.452
 11
2.946
 21
-4.648
  0
LINE
  8
0
 10
1.789
 20
4.648
 11
3.825
 21
-4.452
  0
ARC
  8
0
 10
3.385
 20
-4.550
 40
0.450
 50
-167.392
 51
12.608
  0
LINE
  8
0
 10
3.825
 20
-4.648
 11
5.421
 21
2.488
  0
LINE
  8
0
 10
3.385
 20
-2.488
 11
4.982
 21
4.648
  0
ARC
  8
0
 10
5.421
 20
4.550
 40
0.450
 50
12.608
 51
-167.392
  0
LINE
  8
0
 10
4.982
 20
4.452
 11
7.017
 21
-4.648
  0
LINE
  8
0
 10
5.860
 20
4.648
 11
7.895
 21
-4.452
  0
ARC
  8
0
 10
7.456
 20
-4.550
 40
0.450
 50
-167.392
 51
12.608
  0
LINE
  8
0
 10
7.895
 20
-4.648
 11
9.492
 21
2.488
  0
LINE
  8
0
 10
7.456
 20
-2.488
 11
9.052
 21
4.648
  0
ARC
  8
0
 10
9.492
 20
4.550
 40
0.450
 50
12.608
 51
-167.392
  0
LINE
  8
0
 10
9.052
 20
4.452
 11
11.088
 21
-4.648
  0
LINE
  8
0
 10
9.931
 20
4.648
 11
11.966
 21
-4.452
  0
ARC
  8
0
 10
11.527
 20
-4.550
 40
0.450
 50
-167.392
 51
12.608
  0
LINE
  8
0
 10
11.966
 20
-4.648
 11
13.562
 21
2.488
  0
LINE
  8
0
 10
11.527
 20
-2.488
 11
13.123
 21
4.648
  0
ARC
  8
0
 10
13.562
 20
4.550
 40
0.450
 50
12.608
 51
-167.392
  0
LINE
  8
0
 10
13.123
 20
4.452
 11
15.159
 21
-4.648
  0
LINE
  8
0
 10
14.001
 20
4.648
 11
16.037
 21
-4.452
  0
ARC
  8
0
 10
15.598
 20
-4.550
 40
0.450
 50
-167.392
 51
12.608
  0
LINE
  8
0
 10
16.037
 20
-4.648
 11
17.633
 21
2.488
  0
LINE
  8
0
 10
15.598
 20
-2.488
 11
17.194
 21
4.648
  0
ARC
  8
0
 10
17.633
 20
4.550
 40
0.450
 50
12.608
 51
-167.392
  0
LINE
  8
0
 10
17.194
 20
4.452
 11
19.229
 21
-4.648
  0
LINE
  8
0
 10
18.072
 20
4.648
 11
20.108
 21
-4.452
  0
ARC
  8
0
 10
19.668
 20
-4.550
 40
0.450
 50
-167.392
 51
12.608
  0
LINE
  8
0
 10
20.108
 20
-4.648
 11
21.704
 21
2.488
  0
LINE
  8
0
 10
19.668
 20
-2.488
 11
21.265
 21
4.648
  0
ARC
  8
0
 10
21.704
 20
4.550
 40
0.450
 50
12.608
 51
-167.392
  0
LINE
  8
0
 10
21.265
 20
4.452
 11
23.300
 21
-4.648
  0
LINE
  8
0
 10
22.143
 20
4.648
 11
24.178
 21
-4.452
  0
ARC
  8
0
 10
23.739
 20
-4.550
 40
0.450
 50
-167.392
 51
12.608
  0
LINE
  8
0
 10
24.178
 20
-4.648
 11
25.775
 21
2.488
  0
LINE
  8
0
 10
23.739
 20
-2.488
 11
25.335
 21
4.648
  0
ARC
  8
0
 10
25.775
 20
4.550
 40
0.450
 50
12.608
 51
-167.392
  0
LINE
  8
0
 10
25.335
 20
4.452
 11
27.371
 21
-4.648
  0
LINE
  8
0
 10
26.214
 20
4.648
 11
28.249
 21
-4.452
  0
ARC
  8
0
 10
27.810
 20
-4.550
 40
0.450
 50
-167.392
 51
12.608
  0
LINE
  8
0
 10
28.249
 20
-4.648
 11
29.845
 21
2.488
  0
LINE
  8
0
 10
27.810
 20
-2.488
 11
29.406
 21
4.648
  0
ARC
  8
0
 10
29.845
 20
4.550
 40
0.450
 50
12.608
 51
-167.392
  0
LINE
  8
0
 10
29.406
 20
4.452
 11
31.442
 21
-4.648
  0
LINE
  8
0
 10
30.284
 20
4.648
 11
32.320
 21
-4.452
  0
ARC
  8
0
 10
31.881
 20
-4.550
 40
0.450
 50
-167.392
 51
12.608
  0
LINE
  8
0
 10
32.320
 20
-4.648
 11
33.916
 21
2.488
  0
LINE
  8
0
 10
31.881
 20
-2.488
 11
33.477
 21
4.648
  0
ARC
  8
0
 10
33.916
 20
4.550
 40
0.450
 50
12.608
 51
-167.392
  0
LINE
  8
0
 10
33.477
 20
4.452
 11
35.512
 21
-4.648
  0
LINE
  8
0
 10
34.355
 20
4.648
 11
36.391
 21
-4.452
  0
ARC
  8
0
 10
35.951
 20
-4.550
 40
0.450
 50
-167.392
 51
12.608
  0
LINE
  8
0
 10
36.391
 20
-4.648
 11
37.987
 21
2.488
  0
LINE
  8
0
 10
35.951
 20
-2.488
 11
37.548
 21
4.648
  0
ARC
  8
0
 10
37.987
 20
4.550
 40
0.450
 50
12.608
 51
-167.392
  0
LINE
  8
0
 10
37.548
 20
4.452
 11
39.583
 21
-4.648
  0
LINE
  8
0
 10
38.426
 20
4.648
 11
40.461
 21
-4.452
  0
ARC
  8
0
 10
40.022
 20
-4.550
 40
0.450
 50
-167.392
 51
12.608
  0
LINE
  8
0
 10
40.461
 20
-4.648
 11
42.058
 21
2.488
  0
LINE
  8
0
 10
40.022
 20
-2.488
 11
41.618
 21
4.648
  0
ARC
  8
0
 10
42.058
 20
4.550
 40
0.450
 50
12.608
 51
-167.392
  0
LINE
  8
0
 10
41.618
 20
4.452
 11
43.654
 21
-4.648
  0
LINE
  8
0
 10
42.497
 20
4.648
 11
44.532
 21
-4.452
  0
ARC
  8
0
 10
44.093
 20
-4.550
 40
0.450
 50
-167.392
 51
12.608
  0
LINE
  8
0
 10
44.532
 20
-4.648
 11
46.128
 21
2.488
  0
LINE
  8
0
 10
44.093
 20
-2.488
 11
45.689
 21
4.648
  0
ARC
  8
0
 10
46.128
 20
4.550
 40
0.450
 50
12.608
 51
-167.392
  0
LINE
  8
0
 10
45.689
 20
4.452
 11
47.725
 21
-4.648
  0
LINE
  8
0
 10
46.568
 20
4.648
 11
48.603
 21
-4.452
  0
ARC
  8
0
 10
48.164
 20
-4.550
 40
0.450
 50
-167.392
 51
12.608
  0
LINE
  8
0
 10
48.603
 20
-4.648
 11
50.199
 21
2.488
  0
LINE
  8
0
 10
48.164
 20
-2.488
 11
49.760
 21
4.648
  0
ARC
  8
0
 10
50.199
 20
4.550
 40
0.450
 50
12.608
 51
-167.392
  0
LINE
  8
0
 10
49.760
 20
4.452
 11
51.795
 21
-4.648
  0
LINE
  8
0
 10
50.638
 20
4.648
 11
52.674
 21
-4.452
  0
ARC
  8
0
 10
52.235
 20
-4.550
 40
0.450
 50
-167.392
 51
12.608
  0
LINE
  8
0
 10
52.674
 20
-4.648
 11
54.270
 21
2.488
  0
LINE
  8
0
 10
52.235
 20
-2.488
 11
53.831
 21
4.648
  0
ARC
  8
0
 10
54.270
 20
4.550
 40
0.450
 50
12.608
 51
-167.392
  0
LINE
  8
0
 10
53.831
 20
4.452
 11
55.866
 21
-4.648
  0
LINE
  8
0
 10
54.709
 20
4.648
 11
56.744
 21
-4.452
  0
ARC
  8
0
 10
56.305
 20
-4.550
 40
0.450
 50
-167.392
 51
12.608
  0
LINE
  8
0
 10
56.744
 20
-4.648
 11
58.341
 21
2.488
  0
LINE
  8
0
 10
56.305
 20
-2.488
 11
57.902
 21
4.648
  0
ARC
  8
0
 10
58.341
 20
4.550
 40
0.450
 50
12.608
 51
-167.392
  0
LINE
  8
0
 10
57.902
 20
4.452
 11
59.937
 21
-4.648
  0
LINE
  8
0
 10
58.780
 20
4.648
 11
60.815
 21
-4.452
  0
ARC
  8
0
 10
60.376
 20
-4.550
 40
0.450
 50
-167.392
 51
12.608
  0
LINE
  8
0
 10
60.815
 20
-4.648
 11
62.411
 21
2.488
  0
LINE
  8
0
 10
60.376
 20
-2.488
 11
61.972
 21
4.648
  0
ARC
  8
0
 10
62.411
 20
4.550
 40
0.450
 50
12.608
 51
-167.392
  0
LINE
  8
0
 10
61.972
 20
4.452
 11
64.008
 21
-4.648
  0
LINE
  8
0
 10
62.851
 20
4.648
 11
64.886
 21
-4.452
  0
ARC
  8
0
 10
64.447
 20
-4.550
 40
0.450
 50
-167.392
 51
12.608
  0
LINE
  8
0
 10
64.886
 20
-4.648
 11
66.482
 21
2.488
  0
LINE
  8
0
 10
64.447
 20
-2.488
 11
66.043
 21
4.648
  0
ARC
  8
0
 10
66.482
 20
4.550
 40
0.450
 50
12.608
 51
-167.392
  0
LINE
  8
0
 10
66.043
 20
4.452
 11
68.078
 21
-4.648
  0
LINE
  8
0
 10
66.921
 20
4.648
 11
68.957
 21
-4.452
  0
ARC
  8
0
 10
68.518
 20
-4.550
 40
0.450
 50
-167.392
 51
12.608
  0
LINE
  8
0
 10
68.957
 20
-4.648
 11
70.553
 21
2.488
  0
LINE
  8
0
 10
68.518
 20
-2.488
 11
70.114
 21
4.648
  0
ARC
  8
0
 10
70.553
 20
4.550
 40
0.450
 50
12.608
 51
-167.392
  0
LINE
  8
0
 10
70.114
 20
4.452
 11
72.149
 21
-4.648
  0
LINE
  8
0
 10
70.992
 20
4.648
 11
73.027
 21
-4.452
  0
ARC
  8
0
 10
72.588
 20
-4.550
 40
0.450
 50
-167.392
 51
12.608
  0
LINE
  8
0
 10
73.027
 20
-4.648
 11
74.624
 21
2.488
  0
LINE
  8
0
 10
72.588
 20
-2.488
 11
74.185
 21
4.648
  0
ARC
  8
0
 10
74.624
 20
4.550
 40
0.450
 50
12.608
 51
-167.392
  0
LINE
  8
0
 10
74.185
 20
4.452
 11
76.220
 21
-4.648
  0
LINE
  8
0
 10
75.063
 20
4.648
 11
77.098
 21
-4.452
  0
ARC
  8
0
 10
76.659
 20
-4.550
 40
0.450
 50
-167.392
 51
12.608
  0
LINE
  8
0
 10
76.659
 20
-2.488
 11
78.255
 21
4.648
  0
LINE
  8
0
 10
77.098
 20
-4.648
 11
78.522
 21
1.719
  0
ARC
  8
0
 10
78.694
 20
4.550
 40
0.450
 50
5.648
 51
-174.352
  0
LINE
  8
0
 10
78.247
 20
4.506
 11
79.147
 21
-4.594
  0
LINE
  8
0
 10
79.142
 20
4.594
 11
80.044
 21
-4.528
  0
ARC
  8
0
 10
79.594
 20
-4.550
 40
0.450
 50
-174.352
 51
0.000
  0
CIRCLE
  8
0
 10
79.594
 20
4.550
 40
0.450
  0
LINE
  8
0
 10
80.044
 20
4.550
 11
80.044
 21
-4.550
  0
ENDSEC
  0
EOF
