  0
SECTION
  2
ENTITIES
  0
ARC
  8
0
 10
0.500
 20
4.500
 40
0.500
 50
0.000
 51
180.000
  0
ARC
  8
0
 10
0.500
 20
-4.500
 40
0.500
 50
180.000
 51
0.000
  0
LINE
  8
0
 10
0.000
 20
4.500
 11
0.000
 21
-4.500
  0
LINE
  8
0
 10
1.000
 20
4.500
 11
1.000
 21
-4.500
  0
LINE
  8
0
 10
0.997
 20
-4.555
 11
1.630
 21
1.145
  0
ARC
  8
0
 10
1.500
 20
4.500
 40
0.500
 50
10.787
 51
-169.213
  0
LINE
  8
0
 10
1.009
 20
4.406
 11
2.724
 21
-4.594
  0
LINE
  8
0
 10
1.991
 20
4.594
 11
3.706
 21
-4.406
  0
ARC
  8
0
 10
3.215
 20
-4.500
 40
0.500
 50
-169.213
 51
10.787
  0
LINE
  8
0
 10
3.706
 20
-4.594
 11
4.929
 21
1.828
  0
LINE
  8
0
 10
3.215
 20
-1.828
 11
4.438
 21
4.594
  0
ARC
  8
0
 10
4.929
 20
4.500
 40
0.500
 50
10.787
 51
-169.213
  0
LINE
  8
0
 10
4.438
 20
4.406
 11
6.153
 21
-4.594
  0
LINE
  8
0
 10
5.421
 20
4.594
 11
7.135
 21
-4.406
  0
ARC
  8
0
 10
6.644
 20
-4.500
 40
0.500
 50
-169.213
 51
10.787
  0
LINE
  8
0
 10
7.135
 20
-4.594
 11
8.359
 21
1.828
  0
LINE
  8
0
 10
6.644
 20
-1.828
 11
7.868
 21
4.594
  0
ARC
  8
0
 10
8.359
 20
4.500
 40
0.500
 50
10.787
 51
-169.213
  0
LINE
  8
0
 10
7.868
 20
4.406
 11
9.583
 21
-4.594
  0
LINE
  8
0
 10
8.850
 20
4.594
 11
10.565
 21
-4.406
  0
ARC
  8
0
 10
10.074
 20
-4.500
 40
0.500
 50
-169.213
 51
10.787
  0
LINE
  8
0
 10
10.565
 20
-4.594
 11
11.788
 21
1.828
  0
LINE
  8
0
 10
10.074
 20
-1.828
 11
11.297
 21
4.594
  0
ARC
  8
0
 10
11.788
 20
4.500
 40
0.500
 50
10.787
 51
-169.213
  0
LINE
  8
0
 10
11.297
 20
4.406
 11
13.012
 21
-4.594
  0
LINE
  8
0
 10
12.280
 20
4.594
 11
13.994
 21
-4.406
  0
ARC
  8
0
 10
13.503
 20
-4.500
 40
0.500
 50
-169.213
 51
10.787
  0
LINE
  8
0
 10
13.373
 20
-1.145
 11
14.006
 21
4.555
  0
LINE
  8
0
 10
14.003
 20
4.500
 11
14.003
 21
-4.500
  0
LINE
  8
0
 10
15.003
 20
4.500
 11
15.003
 21
-4.500
  0
ARC
  8
0
 10
14.503
 20
-4.500
 40
0.500
 50
180.000
 51
0.000
  0
ARC
  8
0
 10
14.503
 20
4.500
 40
0.500
 50
0.000
 51
180.000
  0
ENDSEC
  0
EOF
