  0
SECTION
  2
ENTITIES
  0
ARC
  8
0
 10
0.500
 20
4.500
 40
0.500
 50
0.000
 51
180.000
  0
ARC
  8
0
 10
0.500
 20
-4.500
 40
0.500
 50
180.000
 51
0.000
  0
LINE
  8
0
 10
0.000
 20
4.500
 11
0.000
 21
-4.500
  0
LINE
  8
0
 10
1.000
 20
4.500
 11
1.000
 21
-4.500
  0
LINE
  8
0
 10
0.997
 20
-4.555
 11
1.628
 21
1.126
  0
ARC
  8
0
 10
1.500
 20
4.500
 40
0.500
 50
10.693
 51
-169.307
  0
LINE
  8
0
 10
1.009
 20
4.407
 11
2.708
 21
-4.593
  0
LINE
  8
0
 10
1.991
 20
4.593
 11
3.691
 21
-4.407
  0
ARC
  8
0
 10
3.199
 20
-4.500
 40
0.500
 50
-169.307
 51
10.693
  0
LINE
  8
0
 10
3.691
 20
-4.593
 11
4.899
 21
1.805
  0
LINE
  8
0
 10
3.199
 20
-1.805
 11
4.408
 21
4.593
  0
ARC
  8
0
 10
4.899
 20
4.500
 40
0.500
 50
10.693
 51
-169.307
  0
LINE
  8
0
 10
4.408
 20
4.407
 11
6.107
 21
-4.593
  0
LINE
  8
0
 10
5.390
 20
4.593
 11
7.090
 21
-4.407
  0
ARC
  8
0
 10
6.598
 20
-4.500
 40
0.500
 50
-169.307
 51
10.693
  0
LINE
  8
0
 10
7.090
 20
-4.593
 11
8.298
 21
1.805
  0
LINE
  8
0
 10
6.598
 20
-1.805
 11
7.807
 21
4.593
  0
ARC
  8
0
 10
8.298
 20
4.500
 40
0.500
 50
10.693
 51
-169.307
  0
LINE
  8
0
 10
7.807
 20
4.407
 11
9.506
 21
-4.593
  0
LINE
  8
0
 10
8.789
 20
4.593
 11
10.489
 21
-4.407
  0
ARC
  8
0
 10
9.997
 20
-4.500
 40
0.500
 50
-169.307
 51
10.693
  0
LINE
  8
0
 10
10.489
 20
-4.593
 11
11.697
 21
1.805
  0
LINE
  8
0
 10
9.997
 20
-1.805
 11
11.205
 21
4.593
  0
ARC
  8
0
 10
11.697
 20
4.500
 40
0.500
 50
10.693
 51
-169.307
  0
LINE
  8
0
 10
11.205
 20
4.407
 11
12.905
 21
-4.593
  0
LINE
  8
0
 10
12.188
 20
4.593
 11
13.888
 21
-4.407
  0
ARC
  8
0
 10
13.396
 20
-4.500
 40
0.500
 50
-169.307
 51
10.693
  0
LINE
  8
0
 10
13.888
 20
-4.593
 11
15.096
 21
1.805
  0
LINE
  8
0
 10
13.396
 20
-1.805
 11
14.604
 21
4.593
  0
ARC
  8
0
 10
15.096
 20
4.500
 40
0.500
 50
10.693
 51
-169.307
  0
LINE
  8
0
 10
14.604
 20
4.407
 11
16.304
 21
-4.593
  0
LINE
  8
0
 10
15.587
 20
4.593
 11
17.286
 21
-4.407
  0
ARC
  8
0
 10
16.795
 20
-4.500
 40
0.500
 50
-169.307
 51
10.693
  0
LINE
  8
0
 10
16.795
 20
-1.805
 11
18.003
 21
4.593
  0
LINE
  8
0
 10
17.286
 20
-4.593
 11
18.366
 21
1.126
  0
ARC
  8
0
 10
18.495
 20
4.500
 40
0.500
 50
6.340
 51
-173.660
  0
LINE
  8
0
 10
17.998
 20
4.445
 11
18.998
 21
-4.555
  0
LINE
  8
0
 10
18.992
 20
4.555
 11
19.995
 21
-4.472
  0
ARC
  8
0
 10
19.495
 20
-4.500
 40
0.500
 50
-173.660
 51
0.000
  0
CIRCLE
  8
0
 10
19.495
 20
4.500
 40
0.500
  0
LINE
  8
0
 10
19.995
 20
4.500
 11
19.995
 21
-4.500
  0
ENDSEC
  0
EOF
