  0
SECTION
  2
ENTITIES
  0
ARC
  8
0
 10
0.450
 20
5.050
 40
0.450
 50
0.000
 51
180.000
  0
ARC
  8
0
 10
0.450
 20
-5.050
 40
0.450
 50
180.000
 51
0.000
  0
LINE
  8
0
 10
0.000
 20
5.050
 11
0.000
 21
-5.050
  0
LINE
  8
0
 10
0.900
 20
5.050
 11
0.900
 21
-5.050
  0
LINE
  8
0
 10
0.898
 20
-5.090
 11
1.558
 21
2.311
  0
ARC
  8
0
 10
1.350
 20
5.050
 40
0.450
 50
13.765
 51
-166.235
  0
LINE
  8
0
 10
0.913
 20
4.943
 11
3.387
 21
-5.157
  0
LINE
  8
0
 10
1.787
 20
5.157
 11
4.261
 21
-4.943
  0
ARC
  8
0
 10
3.824
 20
-5.050
 40
0.450
 50
-166.235
 51
13.765
  0
LINE
  8
0
 10
4.261
 20
-5.157
 11
6.298
 21
3.159
  0
LINE
  8
0
 10
3.824
 20
-3.159
 11
5.861
 21
5.157
  0
ARC
  8
0
 10
6.298
 20
5.050
 40
0.450
 50
13.765
 51
-166.235
  0
LINE
  8
0
 10
5.861
 20
4.943
 11
8.336
 21
-5.157
  0
LINE
  8
0
 10
6.736
 20
5.157
 11
9.210
 21
-4.943
  0
ARC
  8
0
 10
8.773
 20
-5.050
 40
0.450
 50
-166.235
 51
13.765
  0
LINE
  8
0
 10
9.210
 20
-5.157
 11
11.247
 21
3.159
  0
LINE
  8
0
 10
8.773
 20
-3.159
 11
10.810
 21
5.157
  0
ARC
  8
0
 10
11.247
 20
5.050
 40
0.450
 50
13.765
 51
-166.235
  0
LINE
  8
0
 10
10.810
 20
4.943
 11
13.284
 21
-5.157
  0
LINE
  8
0
 10
11.684
 20
5.157
 11
14.158
 21
-4.943
  0
ARC
  8
0
 10
13.721
 20
-5.050
 40
0.450
 50
-166.235
 51
13.765
  0
LINE
  8
0
 10
14.158
 20
-5.157
 11
16.195
 21
3.159
  0
LINE
  8
0
 10
13.721
 20
-3.159
 11
15.758
 21
5.157
  0
ARC
  8
0
 10
16.195
 20
5.050
 40
0.450
 50
13.765
 51
-166.235
  0
LINE
  8
0
 10
15.758
 20
4.943
 11
18.233
 21
-5.157
  0
LINE
  8
0
 10
16.632
 20
5.157
 11
19.107
 21
-4.943
  0
ARC
  8
0
 10
18.670
 20
-5.050
 40
0.450
 50
-166.235
 51
13.765
  0
LINE
  8
0
 10
18.462
 20
-2.311
 11
19.121
 21
5.090
  0
LINE
  8
0
 10
19.120
 20
5.050
 11
19.120
 21
-5.050
  0
LINE
  8
0
 10
20.020
 20
5.050
 11
20.020
 21
-5.050
  0
ARC
  8
0
 10
19.570
 20
-5.050
 40
0.450
 50
180.000
 51
0.000
  0
ARC
  8
0
 10
19.570
 20
5.050
 40
0.450
 50
0.000
 51
180.000
  0
ENDSEC
  0
EOF
