  0
SECTION
  2
ENTITIES
  0
ARC
  8
0
 10
0.450
 20
5.050
 40
0.450
 50
0.000
 51
180.000
  0
ARC
  8
0
 10
0.450
 20
-5.050
 40
0.450
 50
180.000
 51
0.000
  0
LINE
  8
0
 10
0.000
 20
5.050
 11
0.000
 21
-5.050
  0
LINE
  8
0
 10
0.900
 20
5.050
 11
0.900
 21
-5.050
  0
LINE
  8
0
 10
0.898
 20
-5.090
 11
1.558
 21
2.315
  0
ARC
  8
0
 10
1.350
 20
5.050
 40
0.450
 50
13.794
 51
-166.206
  0
LINE
  8
0
 10
0.913
 20
4.943
 11
3.393
 21
-5.157
  0
LINE
  8
0
 10
1.787
 20
5.157
 11
4.267
 21
-4.943
  0
ARC
  8
0
 10
3.830
 20
-5.050
 40
0.450
 50
-166.206
 51
13.794
  0
LINE
  8
0
 10
4.267
 20
-5.157
 11
6.309
 21
3.163
  0
LINE
  8
0
 10
3.830
 20
-3.163
 11
5.872
 21
5.157
  0
ARC
  8
0
 10
6.309
 20
5.050
 40
0.450
 50
13.794
 51
-166.206
  0
LINE
  8
0
 10
5.872
 20
4.943
 11
8.352
 21
-5.157
  0
LINE
  8
0
 10
6.746
 20
5.157
 11
9.226
 21
-4.943
  0
ARC
  8
0
 10
8.789
 20
-5.050
 40
0.450
 50
-166.206
 51
13.794
  0
LINE
  8
0
 10
9.226
 20
-5.157
 11
11.269
 21
3.163
  0
LINE
  8
0
 10
8.789
 20
-3.163
 11
10.832
 21
5.157
  0
ARC
  8
0
 10
11.269
 20
5.050
 40
0.450
 50
13.794
 51
-166.206
  0
LINE
  8
0
 10
10.832
 20
4.943
 11
13.311
 21
-5.157
  0
LINE
  8
0
 10
11.706
 20
5.157
 11
14.185
 21
-4.943
  0
ARC
  8
0
 10
13.748
 20
-5.050
 40
0.450
 50
-166.206
 51
13.794
  0
LINE
  8
0
 10
14.185
 20
-5.157
 11
16.228
 21
3.163
  0
LINE
  8
0
 10
13.748
 20
-3.163
 11
15.791
 21
5.157
  0
ARC
  8
0
 10
16.228
 20
5.050
 40
0.450
 50
13.794
 51
-166.206
  0
LINE
  8
0
 10
15.791
 20
4.943
 11
18.271
 21
-5.157
  0
LINE
  8
0
 10
16.665
 20
5.157
 11
19.145
 21
-4.943
  0
ARC
  8
0
 10
18.708
 20
-5.050
 40
0.450
 50
-166.206
 51
13.794
  0
LINE
  8
0
 10
19.145
 20
-5.157
 11
21.187
 21
3.163
  0
LINE
  8
0
 10
18.708
 20
-3.163
 11
20.750
 21
5.157
  0
ARC
  8
0
 10
21.187
 20
5.050
 40
0.450
 50
13.794
 51
-166.206
  0
LINE
  8
0
 10
20.750
 20
4.943
 11
23.230
 21
-5.157
  0
LINE
  8
0
 10
21.624
 20
5.157
 11
24.104
 21
-4.943
  0
ARC
  8
0
 10
23.667
 20
-5.050
 40
0.450
 50
-166.206
 51
13.794
  0
LINE
  8
0
 10
23.459
 20
-2.315
 11
24.119
 21
5.090
  0
LINE
  8
0
 10
24.117
 20
5.050
 11
24.117
 21
-5.050
  0
LINE
  8
0
 10
25.017
 20
5.050
 11
25.017
 21
-5.050
  0
ARC
  8
0
 10
24.567
 20
-5.050
 40
0.450
 50
180.000
 51
0.000
  0
ARC
  8
0
 10
24.567
 20
5.050
 40
0.450
 50
0.000
 51
180.000
  0
ENDSEC
  0
EOF
