  0
SECTION
  2
ENTITIES
  0
ARC
  8
0
 10
0.450
 20
5.050
 40
0.450
 50
0.000
 51
180.000
  0
ARC
  8
0
 10
0.450
 20
-5.050
 40
0.450
 50
180.000
 51
0.000
  0
LINE
  8
0
 10
0.000
 20
5.050
 11
0.000
 21
-5.050
  0
LINE
  8
0
 10
0.900
 20
5.050
 11
0.900
 21
-5.050
  0
LINE
  8
0
 10
0.898
 20
-5.090
 11
1.558
 21
2.313
  0
ARC
  8
0
 10
1.350
 20
5.050
 40
0.450
 50
13.781
 51
-166.219
  0
LINE
  8
0
 10
0.913
 20
4.943
 11
3.390
 21
-5.157
  0
LINE
  8
0
 10
1.787
 20
5.157
 11
4.264
 21
-4.943
  0
ARC
  8
0
 10
3.827
 20
-5.050
 40
0.450
 50
-166.219
 51
13.781
  0
LINE
  8
0
 10
4.264
 20
-5.157
 11
6.305
 21
3.161
  0
LINE
  8
0
 10
3.827
 20
-3.161
 11
5.868
 21
5.157
  0
ARC
  8
0
 10
6.305
 20
5.050
 40
0.450
 50
13.781
 51
-166.219
  0
LINE
  8
0
 10
5.868
 20
4.943
 11
8.345
 21
-5.157
  0
LINE
  8
0
 10
6.742
 20
5.157
 11
9.219
 21
-4.943
  0
ARC
  8
0
 10
8.782
 20
-5.050
 40
0.450
 50
-166.219
 51
13.781
  0
LINE
  8
0
 10
9.219
 20
-5.157
 11
11.259
 21
3.161
  0
LINE
  8
0
 10
8.782
 20
-3.161
 11
10.822
 21
5.157
  0
ARC
  8
0
 10
11.259
 20
5.050
 40
0.450
 50
13.781
 51
-166.219
  0
LINE
  8
0
 10
10.822
 20
4.943
 11
13.300
 21
-5.157
  0
LINE
  8
0
 10
11.696
 20
5.157
 11
14.174
 21
-4.943
  0
ARC
  8
0
 10
13.737
 20
-5.050
 40
0.450
 50
-166.219
 51
13.781
  0
LINE
  8
0
 10
14.174
 20
-5.157
 11
16.214
 21
3.161
  0
LINE
  8
0
 10
13.737
 20
-3.161
 11
15.777
 21
5.157
  0
ARC
  8
0
 10
16.214
 20
5.050
 40
0.450
 50
13.781
 51
-166.219
  0
LINE
  8
0
 10
15.777
 20
4.943
 11
18.254
 21
-5.157
  0
LINE
  8
0
 10
16.651
 20
5.157
 11
19.128
 21
-4.943
  0
ARC
  8
0
 10
18.691
 20
-5.050
 40
0.450
 50
-166.219
 51
13.781
  0
LINE
  8
0
 10
19.128
 20
-5.157
 11
21.168
 21
3.161
  0
LINE
  8
0
 10
18.691
 20
-3.161
 11
20.731
 21
5.157
  0
ARC
  8
0
 10
21.168
 20
5.050
 40
0.450
 50
13.781
 51
-166.219
  0
LINE
  8
0
 10
20.731
 20
4.943
 11
23.209
 21
-5.157
  0
LINE
  8
0
 10
21.606
 20
5.157
 11
24.083
 21
-4.943
  0
ARC
  8
0
 10
23.646
 20
-5.050
 40
0.450
 50
-166.219
 51
13.781
  0
LINE
  8
0
 10
24.083
 20
-5.157
 11
26.123
 21
3.161
  0
LINE
  8
0
 10
23.646
 20
-3.161
 11
25.686
 21
5.157
  0
ARC
  8
0
 10
26.123
 20
5.050
 40
0.450
 50
13.781
 51
-166.219
  0
LINE
  8
0
 10
25.686
 20
4.943
 11
28.163
 21
-5.157
  0
LINE
  8
0
 10
26.560
 20
5.157
 11
29.037
 21
-4.943
  0
ARC
  8
0
 10
28.600
 20
-5.050
 40
0.450
 50
-166.219
 51
13.781
  0
LINE
  8
0
 10
28.393
 20
-2.313
 11
29.052
 21
5.090
  0
LINE
  8
0
 10
29.050
 20
5.050
 11
29.050
 21
-5.050
  0
LINE
  8
0
 10
29.950
 20
5.050
 11
29.950
 21
-5.050
  0
ARC
  8
0
 10
29.500
 20
-5.050
 40
0.450
 50
180.000
 51
0.000
  0
ARC
  8
0
 10
29.500
 20
5.050
 40
0.450
 50
0.000
 51
180.000
  0
ENDSEC
  0
EOF
