  0
SECTION
  2
ENTITIES
  0
ARC
  8
0
 10
0.450
 20
5.050
 40
0.450
 50
0.000
 51
180.000
  0
ARC
  8
0
 10
0.450
 20
-5.050
 40
0.450
 50
180.000
 51
0.000
  0
LINE
  8
0
 10
0.000
 20
5.050
 11
0.000
 21
-5.050
  0
LINE
  8
0
 10
0.900
 20
5.050
 11
0.900
 21
-5.050
  0
LINE
  8
0
 10
0.898
 20
-5.090
 11
1.559
 21
2.322
  0
ARC
  8
0
 10
1.350
 20
5.050
 40
0.450
 50
13.844
 51
-166.156
  0
LINE
  8
0
 10
0.913
 20
4.942
 11
3.402
 21
-5.158
  0
LINE
  8
0
 10
1.787
 20
5.158
 11
4.276
 21
-4.942
  0
ARC
  8
0
 10
3.839
 20
-5.050
 40
0.450
 50
-166.156
 51
13.844
  0
LINE
  8
0
 10
4.276
 20
-5.158
 11
6.328
 21
3.169
  0
LINE
  8
0
 10
3.839
 20
-3.169
 11
5.891
 21
5.158
  0
ARC
  8
0
 10
6.328
 20
5.050
 40
0.450
 50
13.844
 51
-166.156
  0
LINE
  8
0
 10
5.891
 20
4.942
 11
8.380
 21
-5.158
  0
LINE
  8
0
 10
6.765
 20
5.158
 11
9.254
 21
-4.942
  0
ARC
  8
0
 10
8.817
 20
-5.050
 40
0.450
 50
-166.156
 51
13.844
  0
LINE
  8
0
 10
9.254
 20
-5.158
 11
11.306
 21
3.169
  0
LINE
  8
0
 10
8.817
 20
-3.169
 11
10.869
 21
5.158
  0
ARC
  8
0
 10
11.306
 20
5.050
 40
0.450
 50
13.844
 51
-166.156
  0
LINE
  8
0
 10
10.869
 20
4.942
 11
13.358
 21
-5.158
  0
LINE
  8
0
 10
11.743
 20
5.158
 11
14.232
 21
-4.942
  0
ARC
  8
0
 10
13.795
 20
-5.050
 40
0.450
 50
-166.156
 51
13.844
  0
LINE
  8
0
 10
14.232
 20
-5.158
 11
16.284
 21
3.169
  0
LINE
  8
0
 10
13.795
 20
-3.169
 11
15.848
 21
5.158
  0
ARC
  8
0
 10
16.284
 20
5.050
 40
0.450
 50
13.844
 51
-166.156
  0
LINE
  8
0
 10
15.848
 20
4.942
 11
18.337
 21
-5.158
  0
LINE
  8
0
 10
16.721
 20
5.158
 11
19.211
 21
-4.942
  0
ARC
  8
0
 10
18.774
 20
-5.050
 40
0.450
 50
-166.156
 51
13.844
  0
LINE
  8
0
 10
19.211
 20
-5.158
 11
21.263
 21
3.169
  0
LINE
  8
0
 10
18.774
 20
-3.169
 11
20.826
 21
5.158
  0
ARC
  8
0
 10
21.263
 20
5.050
 40
0.450
 50
13.844
 51
-166.156
  0
LINE
  8
0
 10
20.826
 20
4.942
 11
23.315
 21
-5.158
  0
LINE
  8
0
 10
21.700
 20
5.158
 11
24.189
 21
-4.942
  0
ARC
  8
0
 10
23.752
 20
-5.050
 40
0.450
 50
-166.156
 51
13.844
  0
LINE
  8
0
 10
24.189
 20
-5.158
 11
26.241
 21
3.169
  0
LINE
  8
0
 10
23.752
 20
-3.169
 11
25.804
 21
5.158
  0
ARC
  8
0
 10
26.241
 20
5.050
 40
0.450
 50
13.844
 51
-166.156
  0
LINE
  8
0
 10
25.804
 20
4.942
 11
28.293
 21
-5.158
  0
LINE
  8
0
 10
26.678
 20
5.158
 11
29.167
 21
-4.942
  0
ARC
  8
0
 10
28.730
 20
-5.050
 40
0.450
 50
-166.156
 51
13.844
  0
LINE
  8
0
 10
29.167
 20
-5.158
 11
31.219
 21
3.169
  0
LINE
  8
0
 10
28.730
 20
-3.169
 11
30.782
 21
5.158
  0
ARC
  8
0
 10
31.219
 20
5.050
 40
0.450
 50
13.844
 51
-166.156
  0
LINE
  8
0
 10
30.782
 20
4.942
 11
33.271
 21
-5.158
  0
LINE
  8
0
 10
31.656
 20
5.158
 11
34.145
 21
-4.942
  0
ARC
  8
0
 10
33.708
 20
-5.050
 40
0.450
 50
-166.156
 51
13.844
  0
LINE
  8
0
 10
34.145
 20
-5.158
 11
36.197
 21
3.169
  0
LINE
  8
0
 10
33.708
 20
-3.169
 11
35.760
 21
5.158
  0
ARC
  8
0
 10
36.197
 20
5.050
 40
0.450
 50
13.844
 51
-166.156
  0
LINE
  8
0
 10
35.760
 20
4.942
 11
38.249
 21
-5.158
  0
LINE
  8
0
 10
36.634
 20
5.158
 11
39.123
 21
-4.942
  0
ARC
  8
0
 10
38.686
 20
-5.050
 40
0.450
 50
-166.156
 51
13.844
  0
LINE
  8
0
 10
39.123
 20
-5.158
 11
41.175
 21
3.169
  0
LINE
  8
0
 10
38.686
 20
-3.169
 11
40.738
 21
5.158
  0
ARC
  8
0
 10
41.175
 20
5.050
 40
0.450
 50
13.844
 51
-166.156
  0
LINE
  8
0
 10
40.738
 20
4.942
 11
43.227
 21
-5.158
  0
LINE
  8
0
 10
41.612
 20
5.158
 11
44.101
 21
-4.942
  0
ARC
  8
0
 10
43.664
 20
-5.050
 40
0.450
 50
-166.156
 51
13.844
  0
LINE
  8
0
 10
44.101
 20
-5.158
 11
46.153
 21
3.169
  0
LINE
  8
0
 10
43.664
 20
-3.169
 11
45.717
 21
5.158
  0
ARC
  8
0
 10
46.153
 20
5.050
 40
0.450
 50
13.844
 51
-166.156
  0
LINE
  8
0
 10
45.717
 20
4.942
 11
48.206
 21
-5.158
  0
LINE
  8
0
 10
46.590
 20
5.158
 11
49.079
 21
-4.942
  0
ARC
  8
0
 10
48.643
 20
-5.050
 40
0.450
 50
-166.156
 51
13.844
  0
LINE
  8
0
 10
48.434
 20
-2.322
 11
49.094
 21
5.090
  0
LINE
  8
0
 10
49.093
 20
5.050
 11
49.093
 21
-5.050
  0
LINE
  8
0
 10
49.993
 20
5.050
 11
49.993
 21
-5.050
  0
ARC
  8
0
 10
49.543
 20
-5.050
 40
0.450
 50
180.000
 51
0.000
  0
ARC
  8
0
 10
49.543
 20
5.050
 40
0.450
 50
0.000
 51
180.000
  0
ENDSEC
  0
EOF
