  0
SECTION
  2
ENTITIES
  0
ARC
  8
0
 10
0.450
 20
5.050
 40
0.450
 50
0.000
 51
180.000
  0
ARC
  8
0
 10
0.450
 20
-5.050
 40
0.450
 50
180.000
 51
0.000
  0
LINE
  8
0
 10
0.000
 20
5.050
 11
0.000
 21
-5.050
  0
LINE
  8
0
 10
0.900
 20
5.050
 11
0.900
 21
-5.050
  0
LINE
  8
0
 10
0.898
 20
-5.090
 11
1.552
 21
2.248
  0
ARC
  8
0
 10
1.350
 20
5.050
 40
0.450
 50
13.346
 51
-166.654
  0
LINE
  8
0
 10
0.912
 20
4.946
 11
3.308
 21
-5.154
  0
LINE
  8
0
 10
1.788
 20
5.154
 11
4.184
 21
-4.946
  0
ARC
  8
0
 10
3.746
 20
-5.050
 40
0.450
 50
-166.654
 51
13.346
  0
LINE
  8
0
 10
4.184
 20
-5.154
 11
6.142
 21
3.101
  0
LINE
  8
0
 10
3.746
 20
-3.101
 11
5.704
 21
5.154
  0
ARC
  8
0
 10
6.142
 20
5.050
 40
0.450
 50
13.346
 51
-166.654
  0
LINE
  8
0
 10
5.704
 20
4.946
 11
8.100
 21
-5.154
  0
LINE
  8
0
 10
6.580
 20
5.154
 11
8.976
 21
-4.946
  0
ARC
  8
0
 10
8.538
 20
-5.050
 40
0.450
 50
-166.654
 51
13.346
  0
LINE
  8
0
 10
8.976
 20
-5.154
 11
10.934
 21
3.101
  0
LINE
  8
0
 10
8.538
 20
-3.101
 11
10.497
 21
5.154
  0
ARC
  8
0
 10
10.934
 20
5.050
 40
0.450
 50
13.346
 51
-166.654
  0
LINE
  8
0
 10
10.497
 20
4.946
 11
12.893
 21
-5.154
  0
LINE
  8
0
 10
11.372
 20
5.154
 11
13.768
 21
-4.946
  0
ARC
  8
0
 10
13.330
 20
-5.050
 40
0.450
 50
-166.654
 51
13.346
  0
LINE
  8
0
 10
13.768
 20
-5.154
 11
15.727
 21
3.101
  0
LINE
  8
0
 10
13.330
 20
-3.101
 11
15.289
 21
5.154
  0
ARC
  8
0
 10
15.727
 20
5.050
 40
0.450
 50
13.346
 51
-166.654
  0
LINE
  8
0
 10
15.289
 20
4.946
 11
17.685
 21
-5.154
  0
LINE
  8
0
 10
16.164
 20
5.154
 11
18.561
 21
-4.946
  0
ARC
  8
0
 10
18.123
 20
-5.050
 40
0.450
 50
-166.654
 51
13.346
  0
LINE
  8
0
 10
18.561
 20
-5.154
 11
20.519
 21
3.101
  0
LINE
  8
0
 10
18.123
 20
-3.101
 11
20.081
 21
5.154
  0
ARC
  8
0
 10
20.519
 20
5.050
 40
0.450
 50
13.346
 51
-166.654
  0
LINE
  8
0
 10
20.081
 20
4.946
 11
22.477
 21
-5.154
  0
LINE
  8
0
 10
20.957
 20
5.154
 11
23.353
 21
-4.946
  0
ARC
  8
0
 10
22.915
 20
-5.050
 40
0.450
 50
-166.654
 51
13.346
  0
LINE
  8
0
 10
23.353
 20
-5.154
 11
25.311
 21
3.101
  0
LINE
  8
0
 10
22.915
 20
-3.101
 11
24.873
 21
5.154
  0
ARC
  8
0
 10
25.311
 20
5.050
 40
0.450
 50
13.346
 51
-166.654
  0
LINE
  8
0
 10
24.873
 20
4.946
 11
27.269
 21
-5.154
  0
LINE
  8
0
 10
25.749
 20
5.154
 11
28.145
 21
-4.946
  0
ARC
  8
0
 10
27.707
 20
-5.050
 40
0.450
 50
-166.654
 51
13.346
  0
LINE
  8
0
 10
28.145
 20
-5.154
 11
30.103
 21
3.101
  0
LINE
  8
0
 10
27.707
 20
-3.101
 11
29.665
 21
5.154
  0
ARC
  8
0
 10
30.103
 20
5.050
 40
0.450
 50
13.346
 51
-166.654
  0
LINE
  8
0
 10
29.665
 20
4.946
 11
32.061
 21
-5.154
  0
LINE
  8
0
 10
30.541
 20
5.154
 11
32.937
 21
-4.946
  0
ARC
  8
0
 10
32.499
 20
-5.050
 40
0.450
 50
-166.654
 51
13.346
  0
LINE
  8
0
 10
32.937
 20
-5.154
 11
34.895
 21
3.101
  0
LINE
  8
0
 10
32.499
 20
-3.101
 11
34.457
 21
5.154
  0
ARC
  8
0
 10
34.895
 20
5.050
 40
0.450
 50
13.346
 51
-166.654
  0
LINE
  8
0
 10
34.457
 20
4.946
 11
36.854
 21
-5.154
  0
LINE
  8
0
 10
35.333
 20
5.154
 11
37.729
 21
-4.946
  0
ARC
  8
0
 10
37.291
 20
-5.050
 40
0.450
 50
-166.654
 51
13.346
  0
LINE
  8
0
 10
37.729
 20
-5.154
 11
39.688
 21
3.101
  0
LINE
  8
0
 10
37.291
 20
-3.101
 11
39.250
 21
5.154
  0
ARC
  8
0
 10
39.688
 20
5.050
 40
0.450
 50
13.346
 51
-166.654
  0
LINE
  8
0
 10
39.250
 20
4.946
 11
41.646
 21
-5.154
  0
LINE
  8
0
 10
40.125
 20
5.154
 11
42.521
 21
-4.946
  0
ARC
  8
0
 10
42.084
 20
-5.050
 40
0.450
 50
-166.654
 51
13.346
  0
LINE
  8
0
 10
42.521
 20
-5.154
 11
44.480
 21
3.101
  0
LINE
  8
0
 10
42.084
 20
-3.101
 11
44.042
 21
5.154
  0
ARC
  8
0
 10
44.480
 20
5.050
 40
0.450
 50
13.346
 51
-166.654
  0
LINE
  8
0
 10
44.042
 20
4.946
 11
46.438
 21
-5.154
  0
LINE
  8
0
 10
44.918
 20
5.154
 11
47.314
 21
-4.946
  0
ARC
  8
0
 10
46.876
 20
-5.050
 40
0.450
 50
-166.654
 51
13.346
  0
LINE
  8
0
 10
47.314
 20
-5.154
 11
49.272
 21
3.101
  0
LINE
  8
0
 10
46.876
 20
-3.101
 11
48.834
 21
5.154
  0
ARC
  8
0
 10
49.272
 20
5.050
 40
0.450
 50
13.346
 51
-166.654
  0
LINE
  8
0
 10
48.834
 20
4.946
 11
51.230
 21
-5.154
  0
LINE
  8
0
 10
49.710
 20
5.154
 11
52.106
 21
-4.946
  0
ARC
  8
0
 10
51.668
 20
-5.050
 40
0.450
 50
-166.654
 51
13.346
  0
LINE
  8
0
 10
52.106
 20
-5.154
 11
54.064
 21
3.101
  0
LINE
  8
0
 10
51.668
 20
-3.101
 11
53.626
 21
5.154
  0
ARC
  8
0
 10
54.064
 20
5.050
 40
0.450
 50
13.346
 51
-166.654
  0
LINE
  8
0
 10
53.626
 20
4.946
 11
56.022
 21
-5.154
  0
LINE
  8
0
 10
54.502
 20
5.154
 11
56.898
 21
-4.946
  0
ARC
  8
0
 10
56.460
 20
-5.050
 40
0.450
 50
-166.654
 51
13.346
  0
LINE
  8
0
 10
56.898
 20
-5.154
 11
58.856
 21
3.101
  0
LINE
  8
0
 10
56.460
 20
-3.101
 11
58.418
 21
5.154
  0
ARC
  8
0
 10
58.856
 20
5.050
 40
0.450
 50
13.346
 51
-166.654
  0
LINE
  8
0
 10
58.418
 20
4.946
 11
60.815
 21
-5.154
  0
LINE
  8
0
 10
59.294
 20
5.154
 11
61.690
 21
-4.946
  0
ARC
  8
0
 10
61.252
 20
-5.050
 40
0.450
 50
-166.654
 51
13.346
  0
LINE
  8
0
 10
61.252
 20
-3.101
 11
63.211
 21
5.154
  0
LINE
  8
0
 10
61.690
 20
-5.154
 11
63.446
 21
2.248
  0
ARC
  8
0
 10
63.648
 20
5.050
 40
0.450
 50
5.092
 51
-174.908
  0
LINE
  8
0
 10
63.200
 20
5.010
 11
64.100
 21
-5.090
  0
LINE
  8
0
 10
64.097
 20
5.090
 11
64.998
 21
-5.030
  0
ARC
  8
0
 10
64.548
 20
-5.050
 40
0.450
 50
-174.908
 51
0.000
  0
CIRCLE
  8
0
 10
64.548
 20
5.050
 40
0.450
  0
LINE
  8
0
 10
64.998
 20
5.050
 11
64.998
 21
-5.050
  0
ENDSEC
  0
EOF
