  0
SECTION
  2
ENTITIES
  0
ARC
  8
0
 10
0.450
 20
5.050
 40
0.450
 50
0.000
 51
180.000
  0
ARC
  8
0
 10
0.450
 20
-5.050
 40
0.450
 50
180.000
 51
0.000
  0
LINE
  8
0
 10
0.000
 20
5.050
 11
0.000
 21
-5.050
  0
LINE
  8
0
 10
0.900
 20
5.050
 11
0.900
 21
-5.050
  0
LINE
  8
0
 10
0.898
 20
-5.090
 11
1.554
 21
2.264
  0
ARC
  8
0
 10
1.350
 20
5.050
 40
0.450
 50
13.451
 51
-166.549
  0
LINE
  8
0
 10
0.912
 20
4.945
 11
3.328
 21
-5.155
  0
LINE
  8
0
 10
1.788
 20
5.155
 11
4.203
 21
-4.945
  0
ARC
  8
0
 10
3.766
 20
-5.050
 40
0.450
 50
-166.549
 51
13.451
  0
LINE
  8
0
 10
4.203
 20
-5.155
 11
6.181
 21
3.115
  0
LINE
  8
0
 10
3.766
 20
-3.115
 11
5.743
 21
5.155
  0
ARC
  8
0
 10
6.181
 20
5.050
 40
0.450
 50
13.451
 51
-166.549
  0
LINE
  8
0
 10
5.743
 20
4.945
 11
8.159
 21
-5.155
  0
LINE
  8
0
 10
6.619
 20
5.155
 11
9.034
 21
-4.945
  0
ARC
  8
0
 10
8.597
 20
-5.050
 40
0.450
 50
-166.549
 51
13.451
  0
LINE
  8
0
 10
9.034
 20
-5.155
 11
11.012
 21
3.115
  0
LINE
  8
0
 10
8.597
 20
-3.115
 11
10.575
 21
5.155
  0
ARC
  8
0
 10
11.012
 20
5.050
 40
0.450
 50
13.451
 51
-166.549
  0
LINE
  8
0
 10
10.575
 20
4.945
 11
12.990
 21
-5.155
  0
LINE
  8
0
 10
11.450
 20
5.155
 11
13.866
 21
-4.945
  0
ARC
  8
0
 10
13.428
 20
-5.050
 40
0.450
 50
-166.549
 51
13.451
  0
LINE
  8
0
 10
13.866
 20
-5.155
 11
15.843
 21
3.115
  0
LINE
  8
0
 10
13.428
 20
-3.115
 11
15.406
 21
5.155
  0
ARC
  8
0
 10
15.843
 20
5.050
 40
0.450
 50
13.451
 51
-166.549
  0
LINE
  8
0
 10
15.406
 20
4.945
 11
17.821
 21
-5.155
  0
LINE
  8
0
 10
16.281
 20
5.155
 11
18.697
 21
-4.945
  0
ARC
  8
0
 10
18.259
 20
-5.050
 40
0.450
 50
-166.549
 51
13.451
  0
LINE
  8
0
 10
18.697
 20
-5.155
 11
20.675
 21
3.115
  0
LINE
  8
0
 10
18.259
 20
-3.115
 11
20.237
 21
5.155
  0
ARC
  8
0
 10
20.675
 20
5.050
 40
0.450
 50
13.451
 51
-166.549
  0
LINE
  8
0
 10
20.237
 20
4.945
 11
22.652
 21
-5.155
  0
LINE
  8
0
 10
21.112
 20
5.155
 11
23.528
 21
-4.945
  0
ARC
  8
0
 10
23.090
 20
-5.050
 40
0.450
 50
-166.549
 51
13.451
  0
LINE
  8
0
 10
23.528
 20
-5.155
 11
25.506
 21
3.115
  0
LINE
  8
0
 10
23.090
 20
-3.115
 11
25.068
 21
5.155
  0
ARC
  8
0
 10
25.506
 20
5.050
 40
0.450
 50
13.451
 51
-166.549
  0
LINE
  8
0
 10
25.068
 20
4.945
 11
27.484
 21
-5.155
  0
LINE
  8
0
 10
25.943
 20
5.155
 11
28.359
 21
-4.945
  0
ARC
  8
0
 10
27.921
 20
-5.050
 40
0.450
 50
-166.549
 51
13.451
  0
LINE
  8
0
 10
28.359
 20
-5.155
 11
30.337
 21
3.115
  0
LINE
  8
0
 10
27.921
 20
-3.115
 11
29.899
 21
5.155
  0
ARC
  8
0
 10
30.337
 20
5.050
 40
0.450
 50
13.451
 51
-166.549
  0
LINE
  8
0
 10
29.899
 20
4.945
 11
32.315
 21
-5.155
  0
LINE
  8
0
 10
30.774
 20
5.155
 11
33.190
 21
-4.945
  0
ARC
  8
0
 10
32.752
 20
-5.050
 40
0.450
 50
-166.549
 51
13.451
  0
LINE
  8
0
 10
33.190
 20
-5.155
 11
35.168
 21
3.115
  0
LINE
  8
0
 10
32.752
 20
-3.115
 11
34.730
 21
5.155
  0
ARC
  8
0
 10
35.168
 20
5.050
 40
0.450
 50
13.451
 51
-166.549
  0
LINE
  8
0
 10
34.730
 20
4.945
 11
37.146
 21
-5.155
  0
LINE
  8
0
 10
35.606
 20
5.155
 11
38.021
 21
-4.945
  0
ARC
  8
0
 10
37.584
 20
-5.050
 40
0.450
 50
-166.549
 51
13.451
  0
LINE
  8
0
 10
38.021
 20
-5.155
 11
39.999
 21
3.115
  0
LINE
  8
0
 10
37.584
 20
-3.115
 11
39.561
 21
5.155
  0
ARC
  8
0
 10
39.999
 20
5.050
 40
0.450
 50
13.451
 51
-166.549
  0
LINE
  8
0
 10
39.561
 20
4.945
 11
41.977
 21
-5.155
  0
LINE
  8
0
 10
40.437
 20
5.155
 11
42.852
 21
-4.945
  0
ARC
  8
0
 10
42.415
 20
-5.050
 40
0.450
 50
-166.549
 51
13.451
  0
LINE
  8
0
 10
42.852
 20
-5.155
 11
44.830
 21
3.115
  0
LINE
  8
0
 10
42.415
 20
-3.115
 11
44.393
 21
5.155
  0
ARC
  8
0
 10
44.830
 20
5.050
 40
0.450
 50
13.451
 51
-166.549
  0
LINE
  8
0
 10
44.393
 20
4.945
 11
46.808
 21
-5.155
  0
LINE
  8
0
 10
45.268
 20
5.155
 11
47.683
 21
-4.945
  0
ARC
  8
0
 10
47.246
 20
-5.050
 40
0.450
 50
-166.549
 51
13.451
  0
LINE
  8
0
 10
47.683
 20
-5.155
 11
49.661
 21
3.115
  0
LINE
  8
0
 10
47.246
 20
-3.115
 11
49.224
 21
5.155
  0
ARC
  8
0
 10
49.661
 20
5.050
 40
0.450
 50
13.451
 51
-166.549
  0
LINE
  8
0
 10
49.224
 20
4.945
 11
51.639
 21
-5.155
  0
LINE
  8
0
 10
50.099
 20
5.155
 11
52.515
 21
-4.945
  0
ARC
  8
0
 10
52.077
 20
-5.050
 40
0.450
 50
-166.549
 51
13.451
  0
LINE
  8
0
 10
52.515
 20
-5.155
 11
54.493
 21
3.115
  0
LINE
  8
0
 10
52.077
 20
-3.115
 11
54.055
 21
5.155
  0
ARC
  8
0
 10
54.493
 20
5.050
 40
0.450
 50
13.451
 51
-166.549
  0
LINE
  8
0
 10
54.055
 20
4.945
 11
56.470
 21
-5.155
  0
LINE
  8
0
 10
54.930
 20
5.155
 11
57.346
 21
-4.945
  0
ARC
  8
0
 10
56.908
 20
-5.050
 40
0.450
 50
-166.549
 51
13.451
  0
LINE
  8
0
 10
57.346
 20
-5.155
 11
59.324
 21
3.115
  0
LINE
  8
0
 10
56.908
 20
-3.115
 11
58.886
 21
5.155
  0
ARC
  8
0
 10
59.324
 20
5.050
 40
0.450
 50
13.451
 51
-166.549
  0
LINE
  8
0
 10
58.886
 20
4.945
 11
61.302
 21
-5.155
  0
LINE
  8
0
 10
59.761
 20
5.155
 11
62.177
 21
-4.945
  0
ARC
  8
0
 10
61.739
 20
-5.050
 40
0.450
 50
-166.549
 51
13.451
  0
LINE
  8
0
 10
62.177
 20
-5.155
 11
64.155
 21
3.115
  0
LINE
  8
0
 10
61.739
 20
-3.115
 11
63.717
 21
5.155
  0
ARC
  8
0
 10
64.155
 20
5.050
 40
0.450
 50
13.451
 51
-166.549
  0
LINE
  8
0
 10
63.717
 20
4.945
 11
66.133
 21
-5.155
  0
LINE
  8
0
 10
64.592
 20
5.155
 11
67.008
 21
-4.945
  0
ARC
  8
0
 10
66.570
 20
-5.050
 40
0.450
 50
-166.549
 51
13.451
  0
LINE
  8
0
 10
67.008
 20
-5.155
 11
68.986
 21
3.115
  0
LINE
  8
0
 10
66.570
 20
-3.115
 11
68.548
 21
5.155
  0
ARC
  8
0
 10
68.986
 20
5.050
 40
0.450
 50
13.451
 51
-166.549
  0
LINE
  8
0
 10
68.548
 20
4.945
 11
70.964
 21
-5.155
  0
LINE
  8
0
 10
69.424
 20
5.155
 11
71.839
 21
-4.945
  0
ARC
  8
0
 10
71.402
 20
-5.050
 40
0.450
 50
-166.549
 51
13.451
  0
LINE
  8
0
 10
71.839
 20
-5.155
 11
73.817
 21
3.115
  0
LINE
  8
0
 10
71.402
 20
-3.115
 11
73.379
 21
5.155
  0
ARC
  8
0
 10
73.817
 20
5.050
 40
0.450
 50
13.451
 51
-166.549
  0
LINE
  8
0
 10
73.379
 20
4.945
 11
75.795
 21
-5.155
  0
LINE
  8
0
 10
74.255
 20
5.155
 11
76.670
 21
-4.945
  0
ARC
  8
0
 10
76.233
 20
-5.050
 40
0.450
 50
-166.549
 51
13.451
  0
LINE
  8
0
 10
76.233
 20
-3.115
 11
78.211
 21
5.155
  0
LINE
  8
0
 10
76.670
 20
-5.155
 11
78.445
 21
2.264
  0
ARC
  8
0
 10
78.648
 20
5.050
 40
0.450
 50
5.092
 51
-174.908
  0
LINE
  8
0
 10
78.200
 20
5.010
 11
79.100
 21
-5.090
  0
LINE
  8
0
 10
79.096
 20
5.090
 11
79.998
 21
-5.030
  0
ARC
  8
0
 10
79.548
 20
-5.050
 40
0.450
 50
-174.908
 51
0.000
  0
CIRCLE
  8
0
 10
79.548
 20
5.050
 40
0.450
  0
LINE
  8
0
 10
79.998
 20
5.050
 11
79.998
 21
-5.050
  0
ENDSEC
  0
EOF
