  0
SECTION
  2
ENTITIES
  0
ARC
  8
0
 10
0.450
 20
5.050
 40
0.450
 50
0.000
 51
180.000
  0
ARC
  8
0
 10
0.450
 20
-5.050
 40
0.450
 50
180.000
 51
0.000
  0
LINE
  8
0
 10
0.000
 20
5.050
 11
0.000
 21
-5.050
  0
LINE
  8
0
 10
0.900
 20
5.050
 11
0.900
 21
-5.050
  0
LINE
  8
0
 10
0.898
 20
-5.090
 11
1.555
 21
2.279
  0
ARC
  8
0
 10
1.350
 20
5.050
 40
0.450
 50
13.547
 51
-166.453
  0
LINE
  8
0
 10
0.913
 20
4.945
 11
3.346
 21
-5.155
  0
LINE
  8
0
 10
1.787
 20
5.155
 11
4.221
 21
-4.945
  0
ARC
  8
0
 10
3.783
 20
-5.050
 40
0.450
 50
-166.453
 51
13.547
  0
LINE
  8
0
 10
4.221
 20
-5.155
 11
6.217
 21
3.129
  0
LINE
  8
0
 10
3.783
 20
-3.129
 11
5.779
 21
5.155
  0
ARC
  8
0
 10
6.217
 20
5.050
 40
0.450
 50
13.547
 51
-166.453
  0
LINE
  8
0
 10
5.779
 20
4.945
 11
8.213
 21
-5.155
  0
LINE
  8
0
 10
6.654
 20
5.155
 11
9.088
 21
-4.945
  0
ARC
  8
0
 10
8.650
 20
-5.050
 40
0.450
 50
-166.453
 51
13.547
  0
LINE
  8
0
 10
9.088
 20
-5.155
 11
11.084
 21
3.129
  0
LINE
  8
0
 10
8.650
 20
-3.129
 11
10.646
 21
5.155
  0
ARC
  8
0
 10
11.084
 20
5.050
 40
0.450
 50
13.547
 51
-166.453
  0
LINE
  8
0
 10
10.646
 20
4.945
 11
13.080
 21
-5.155
  0
LINE
  8
0
 10
11.521
 20
5.155
 11
13.955
 21
-4.945
  0
ARC
  8
0
 10
13.517
 20
-5.050
 40
0.450
 50
-166.453
 51
13.547
  0
LINE
  8
0
 10
13.955
 20
-5.155
 11
15.951
 21
3.129
  0
LINE
  8
0
 10
13.517
 20
-3.129
 11
15.513
 21
5.155
  0
ARC
  8
0
 10
15.951
 20
5.050
 40
0.450
 50
13.547
 51
-166.453
  0
LINE
  8
0
 10
15.513
 20
4.945
 11
17.947
 21
-5.155
  0
LINE
  8
0
 10
16.388
 20
5.155
 11
18.822
 21
-4.945
  0
ARC
  8
0
 10
18.384
 20
-5.050
 40
0.450
 50
-166.453
 51
13.547
  0
LINE
  8
0
 10
18.822
 20
-5.155
 11
20.818
 21
3.129
  0
LINE
  8
0
 10
18.384
 20
-3.129
 11
20.380
 21
5.155
  0
ARC
  8
0
 10
20.818
 20
5.050
 40
0.450
 50
13.547
 51
-166.453
  0
LINE
  8
0
 10
20.380
 20
4.945
 11
22.814
 21
-5.155
  0
LINE
  8
0
 10
21.255
 20
5.155
 11
23.689
 21
-4.945
  0
ARC
  8
0
 10
23.251
 20
-5.050
 40
0.450
 50
-166.453
 51
13.547
  0
LINE
  8
0
 10
23.689
 20
-5.155
 11
25.685
 21
3.129
  0
LINE
  8
0
 10
23.251
 20
-3.129
 11
25.247
 21
5.155
  0
ARC
  8
0
 10
25.685
 20
5.050
 40
0.450
 50
13.547
 51
-166.453
  0
LINE
  8
0
 10
25.247
 20
4.945
 11
27.681
 21
-5.155
  0
LINE
  8
0
 10
26.122
 20
5.155
 11
28.556
 21
-4.945
  0
ARC
  8
0
 10
28.118
 20
-5.050
 40
0.450
 50
-166.453
 51
13.547
  0
LINE
  8
0
 10
28.556
 20
-5.155
 11
30.552
 21
3.129
  0
LINE
  8
0
 10
28.118
 20
-3.129
 11
30.114
 21
5.155
  0
ARC
  8
0
 10
30.552
 20
5.050
 40
0.450
 50
13.547
 51
-166.453
  0
LINE
  8
0
 10
30.114
 20
4.945
 11
32.548
 21
-5.155
  0
LINE
  8
0
 10
30.989
 20
5.155
 11
33.423
 21
-4.945
  0
ARC
  8
0
 10
32.985
 20
-5.050
 40
0.450
 50
-166.453
 51
13.547
  0
LINE
  8
0
 10
33.423
 20
-5.155
 11
35.419
 21
3.129
  0
LINE
  8
0
 10
32.985
 20
-3.129
 11
34.981
 21
5.155
  0
ARC
  8
0
 10
35.419
 20
5.050
 40
0.450
 50
13.547
 51
-166.453
  0
LINE
  8
0
 10
34.981
 20
4.945
 11
37.415
 21
-5.155
  0
LINE
  8
0
 10
35.856
 20
5.155
 11
38.290
 21
-4.945
  0
ARC
  8
0
 10
37.852
 20
-5.050
 40
0.450
 50
-166.453
 51
13.547
  0
LINE
  8
0
 10
38.290
 20
-5.155
 11
40.286
 21
3.129
  0
LINE
  8
0
 10
37.852
 20
-3.129
 11
39.848
 21
5.155
  0
ARC
  8
0
 10
40.286
 20
5.050
 40
0.450
 50
13.547
 51
-166.453
  0
LINE
  8
0
 10
39.848
 20
4.945
 11
42.282
 21
-5.155
  0
LINE
  8
0
 10
40.723
 20
5.155
 11
43.157
 21
-4.945
  0
ARC
  8
0
 10
42.719
 20
-5.050
 40
0.450
 50
-166.453
 51
13.547
  0
LINE
  8
0
 10
43.157
 20
-5.155
 11
45.153
 21
3.129
  0
LINE
  8
0
 10
42.719
 20
-3.129
 11
44.715
 21
5.155
  0
ARC
  8
0
 10
45.153
 20
5.050
 40
0.450
 50
13.547
 51
-166.453
  0
LINE
  8
0
 10
44.715
 20
4.945
 11
47.149
 21
-5.155
  0
LINE
  8
0
 10
45.590
 20
5.155
 11
48.024
 21
-4.945
  0
ARC
  8
0
 10
47.586
 20
-5.050
 40
0.450
 50
-166.453
 51
13.547
  0
LINE
  8
0
 10
48.024
 20
-5.155
 11
50.020
 21
3.129
  0
LINE
  8
0
 10
47.586
 20
-3.129
 11
49.582
 21
5.155
  0
ARC
  8
0
 10
50.020
 20
5.050
 40
0.450
 50
13.547
 51
-166.453
  0
LINE
  8
0
 10
49.582
 20
4.945
 11
52.016
 21
-5.155
  0
LINE
  8
0
 10
50.457
 20
5.155
 11
52.891
 21
-4.945
  0
ARC
  8
0
 10
52.453
 20
-5.050
 40
0.450
 50
-166.453
 51
13.547
  0
LINE
  8
0
 10
52.891
 20
-5.155
 11
54.887
 21
3.129
  0
LINE
  8
0
 10
52.453
 20
-3.129
 11
54.449
 21
5.155
  0
ARC
  8
0
 10
54.887
 20
5.050
 40
0.450
 50
13.547
 51
-166.453
  0
LINE
  8
0
 10
54.449
 20
4.945
 11
56.883
 21
-5.155
  0
LINE
  8
0
 10
55.324
 20
5.155
 11
57.757
 21
-4.945
  0
ARC
  8
0
 10
57.320
 20
-5.050
 40
0.450
 50
-166.453
 51
13.547
  0
LINE
  8
0
 10
57.757
 20
-5.155
 11
59.753
 21
3.129
  0
LINE
  8
0
 10
57.320
 20
-3.129
 11
59.316
 21
5.155
  0
ARC
  8
0
 10
59.753
 20
5.050
 40
0.450
 50
13.547
 51
-166.453
  0
LINE
  8
0
 10
59.316
 20
4.945
 11
61.749
 21
-5.155
  0
LINE
  8
0
 10
60.191
 20
5.155
 11
62.624
 21
-4.945
  0
ARC
  8
0
 10
62.187
 20
-5.050
 40
0.450
 50
-166.453
 51
13.547
  0
LINE
  8
0
 10
62.624
 20
-5.155
 11
64.620
 21
3.129
  0
LINE
  8
0
 10
62.187
 20
-3.129
 11
64.183
 21
5.155
  0
ARC
  8
0
 10
64.620
 20
5.050
 40
0.450
 50
13.547
 51
-166.453
  0
LINE
  8
0
 10
64.183
 20
4.945
 11
66.616
 21
-5.155
  0
LINE
  8
0
 10
65.058
 20
5.155
 11
67.491
 21
-4.945
  0
ARC
  8
0
 10
67.054
 20
-5.050
 40
0.450
 50
-166.453
 51
13.547
  0
LINE
  8
0
 10
67.491
 20
-5.155
 11
69.487
 21
3.129
  0
LINE
  8
0
 10
67.054
 20
-3.129
 11
69.050
 21
5.155
  0
ARC
  8
0
 10
69.487
 20
5.050
 40
0.450
 50
13.547
 51
-166.453
  0
LINE
  8
0
 10
69.050
 20
4.945
 11
71.483
 21
-5.155
  0
LINE
  8
0
 10
69.925
 20
5.155
 11
72.358
 21
-4.945
  0
ARC
  8
0
 10
71.921
 20
-5.050
 40
0.450
 50
-166.453
 51
13.547
  0
LINE
  8
0
 10
72.358
 20
-5.155
 11
74.354
 21
3.129
  0
LINE
  8
0
 10
71.921
 20
-3.129
 11
73.917
 21
5.155
  0
ARC
  8
0
 10
74.354
 20
5.050
 40
0.450
 50
13.547
 51
-166.453
  0
LINE
  8
0
 10
73.917
 20
4.945
 11
76.350
 21
-5.155
  0
LINE
  8
0
 10
74.792
 20
5.155
 11
77.225
 21
-4.945
  0
ARC
  8
0
 10
76.788
 20
-5.050
 40
0.450
 50
-166.453
 51
13.547
  0
LINE
  8
0
 10
77.225
 20
-5.155
 11
79.221
 21
3.129
  0
LINE
  8
0
 10
76.788
 20
-3.129
 11
78.784
 21
5.155
  0
ARC
  8
0
 10
79.221
 20
5.050
 40
0.450
 50
13.547
 51
-166.453
  0
LINE
  8
0
 10
78.784
 20
4.945
 11
81.217
 21
-5.155
  0
LINE
  8
0
 10
79.659
 20
5.155
 11
82.092
 21
-4.945
  0
ARC
  8
0
 10
81.655
 20
-5.050
 40
0.450
 50
-166.453
 51
13.547
  0
LINE
  8
0
 10
82.092
 20
-5.155
 11
84.088
 21
3.129
  0
LINE
  8
0
 10
81.655
 20
-3.129
 11
83.651
 21
5.155
  0
ARC
  8
0
 10
84.088
 20
5.050
 40
0.450
 50
13.547
 51
-166.453
  0
LINE
  8
0
 10
83.651
 20
4.945
 11
86.084
 21
-5.155
  0
LINE
  8
0
 10
84.526
 20
5.155
 11
86.959
 21
-4.945
  0
ARC
  8
0
 10
86.522
 20
-5.050
 40
0.450
 50
-166.453
 51
13.547
  0
LINE
  8
0
 10
86.959
 20
-5.155
 11
88.955
 21
3.129
  0
LINE
  8
0
 10
86.522
 20
-3.129
 11
88.518
 21
5.155
  0
ARC
  8
0
 10
88.955
 20
5.050
 40
0.450
 50
13.547
 51
-166.453
  0
LINE
  8
0
 10
88.518
 20
4.945
 11
90.951
 21
-5.155
  0
LINE
  8
0
 10
89.393
 20
5.155
 11
91.826
 21
-4.945
  0
ARC
  8
0
 10
91.389
 20
-5.050
 40
0.450
 50
-166.453
 51
13.547
  0
LINE
  8
0
 10
91.826
 20
-5.155
 11
93.822
 21
3.129
  0
LINE
  8
0
 10
91.389
 20
-3.129
 11
93.385
 21
5.155
  0
ARC
  8
0
 10
93.822
 20
5.050
 40
0.450
 50
13.547
 51
-166.453
  0
LINE
  8
0
 10
93.385
 20
4.945
 11
95.818
 21
-5.155
  0
LINE
  8
0
 10
94.260
 20
5.155
 11
96.693
 21
-4.945
  0
ARC
  8
0
 10
96.256
 20
-5.050
 40
0.450
 50
-166.453
 51
13.547
  0
LINE
  8
0
 10
96.256
 20
-3.129
 11
98.252
 21
5.155
  0
LINE
  8
0
 10
96.693
 20
-5.155
 11
98.484
 21
2.279
  0
ARC
  8
0
 10
98.689
 20
5.050
 40
0.450
 50
5.092
 51
-174.908
  0
LINE
  8
0
 10
98.241
 20
5.010
 11
99.141
 21
-5.090
  0
LINE
  8
0
 10
99.137
 20
5.090
 11
100.039
 21
-5.030
  0
ARC
  8
0
 10
99.589
 20
-5.050
 40
0.450
 50
-174.908
 51
0.000
  0
CIRCLE
  8
0
 10
99.589
 20
5.050
 40
0.450
  0
LINE
  8
0
 10
100.039
 20
5.050
 11
100.039
 21
-5.050
  0
ENDSEC
  0
EOF
