  0
SECTION
  2
ENTITIES
  0
ARC
  8
0
 10
-0.300
 20
7.400
 40
0.600
 50
0.000
 51
60.000
  0
ARC
  8
0
 10
0.300
 20
-7.400
 40
0.600
 50
-120.000
 51
0.000
  0
LINE
  8
0
 10
0.000
 20
7.920
 11
0.000
 21
-7.920
  0
LINE
  8
0
 10
0.300
 20
7.400
 11
0.900
 21
-7.400
  0
LINE
  8
0
 10
0.900
 20
-7.424
 11
1.330
 21
3.198
  0
ARC
  8
0
 10
0.900
 20
7.400
 40
0.600
 50
14.012
 51
-165.988
  0
LINE
  8
0
 10
0.318
 20
7.255
 11
4.011
 21
-7.545
  0
LINE
  8
0
 10
1.482
 20
7.545
 11
5.175
 21
-7.255
  0
ARC
  8
0
 10
4.593
 20
-7.400
 40
0.600
 50
-165.988
 51
14.012
  0
LINE
  8
0
 10
5.175
 20
-7.545
 11
8.287
 21
4.922
  0
LINE
  8
0
 10
4.593
 20
-4.922
 11
7.705
 21
7.545
  0
ARC
  8
0
 10
8.287
 20
7.400
 40
0.600
 50
14.012
 51
-165.988
  0
LINE
  8
0
 10
7.705
 20
7.255
 11
11.398
 21
-7.545
  0
LINE
  8
0
 10
8.869
 20
7.545
 11
12.562
 21
-7.255
  0
ARC
  8
0
 10
11.980
 20
-7.400
 40
0.600
 50
-165.988
 51
14.012
  0
LINE
  8
0
 10
12.562
 20
-7.545
 11
15.673
 21
4.922
  0
LINE
  8
0
 10
11.980
 20
-4.922
 11
15.091
 21
7.545
  0
ARC
  8
0
 10
15.673
 20
7.400
 40
0.600
 50
14.012
 51
-165.988
  0
LINE
  8
0
 10
15.091
 20
7.255
 11
18.785
 21
-7.545
  0
LINE
  8
0
 10
16.255
 20
7.545
 11
19.949
 21
-7.255
  0
ARC
  8
0
 10
19.367
 20
-7.400
 40
0.600
 50
-165.988
 51
14.012
  0
LINE
  8
0
 10
19.949
 20
-7.545
 11
23.060
 21
4.922
  0
LINE
  8
0
 10
19.367
 20
-4.922
 11
22.478
 21
7.545
  0
ARC
  8
0
 10
23.060
 20
7.400
 40
0.600
 50
14.012
 51
-165.988
  0
LINE
  8
0
 10
22.478
 20
7.255
 11
26.171
 21
-7.545
  0
LINE
  8
0
 10
23.642
 20
7.545
 11
27.336
 21
-7.255
  0
ARC
  8
0
 10
26.753
 20
-7.400
 40
0.600
 50
-165.988
 51
14.012
  0
LINE
  8
0
 10
27.336
 20
-7.545
 11
30.447
 21
4.922
  0
LINE
  8
0
 10
26.753
 20
-4.922
 11
29.865
 21
7.545
  0
ARC
  8
0
 10
30.447
 20
7.400
 40
0.600
 50
14.012
 51
-165.988
  0
LINE
  8
0
 10
29.865
 20
7.255
 11
33.558
 21
-7.545
  0
LINE
  8
0
 10
31.029
 20
7.545
 11
34.722
 21
-7.255
  0
ARC
  8
0
 10
34.140
 20
-7.400
 40
0.600
 50
-165.988
 51
14.012
  0
LINE
  8
0
 10
34.722
 20
-7.545
 11
37.833
 21
4.922
  0
LINE
  8
0
 10
34.140
 20
-4.922
 11
37.251
 21
7.545
  0
ARC
  8
0
 10
37.833
 20
7.400
 40
0.600
 50
14.012
 51
-165.988
  0
LINE
  8
0
 10
37.251
 20
7.255
 11
40.945
 21
-7.545
  0
LINE
  8
0
 10
38.416
 20
7.545
 11
42.109
 21
-7.255
  0
ARC
  8
0
 10
41.527
 20
-7.400
 40
0.600
 50
-165.988
 51
14.012
  0
LINE
  8
0
 10
42.109
 20
-7.545
 11
45.220
 21
4.922
  0
LINE
  8
0
 10
41.527
 20
-4.922
 11
44.638
 21
7.545
  0
ARC
  8
0
 10
45.220
 20
7.400
 40
0.600
 50
14.012
 51
-165.988
  0
LINE
  8
0
 10
44.638
 20
7.255
 11
48.331
 21
-7.545
  0
LINE
  8
0
 10
45.802
 20
7.545
 11
49.496
 21
-7.255
  0
ARC
  8
0
 10
48.913
 20
-7.400
 40
0.600
 50
-165.988
 51
14.012
  0
LINE
  8
0
 10
49.496
 20
-7.545
 11
52.607
 21
4.922
  0
LINE
  8
0
 10
48.913
 20
-4.922
 11
52.025
 21
7.545
  0
ARC
  8
0
 10
52.607
 20
7.400
 40
0.600
 50
14.012
 51
-165.988
  0
LINE
  8
0
 10
52.025
 20
7.255
 11
55.718
 21
-7.545
  0
LINE
  8
0
 10
53.189
 20
7.545
 11
56.882
 21
-7.255
  0
ARC
  8
0
 10
56.300
 20
-7.400
 40
0.600
 50
-165.988
 51
14.012
  0
LINE
  8
0
 10
56.882
 20
-7.545
 11
59.993
 21
4.922
  0
LINE
  8
0
 10
56.300
 20
-4.922
 11
59.411
 21
7.545
  0
ARC
  8
0
 10
59.993
 20
7.400
 40
0.600
 50
14.012
 51
-165.988
  0
LINE
  8
0
 10
59.411
 20
7.255
 11
63.105
 21
-7.545
  0
LINE
  8
0
 10
60.576
 20
7.545
 11
64.269
 21
-7.255
  0
ARC
  8
0
 10
63.687
 20
-7.400
 40
0.600
 50
-165.988
 51
14.012
  0
LINE
  8
0
 10
64.269
 20
-7.545
 11
67.380
 21
4.922
  0
LINE
  8
0
 10
63.687
 20
-4.922
 11
66.798
 21
7.545
  0
ARC
  8
0
 10
67.380
 20
7.400
 40
0.600
 50
14.012
 51
-165.988
  0
LINE
  8
0
 10
66.798
 20
7.255
 11
70.491
 21
-7.545
  0
LINE
  8
0
 10
67.962
 20
7.545
 11
71.656
 21
-7.255
  0
ARC
  8
0
 10
71.073
 20
-7.400
 40
0.600
 50
-165.988
 51
14.012
  0
LINE
  8
0
 10
71.656
 20
-7.545
 11
74.767
 21
4.922
  0
LINE
  8
0
 10
71.073
 20
-4.922
 11
74.185
 21
7.545
  0
ARC
  8
0
 10
74.767
 20
7.400
 40
0.600
 50
14.012
 51
-165.988
  0
LINE
  8
0
 10
74.185
 20
7.255
 11
77.878
 21
-7.545
  0
LINE
  8
0
 10
75.349
 20
7.545
 11
79.042
 21
-7.255
  0
ARC
  8
0
 10
78.460
 20
-7.400
 40
0.600
 50
-165.988
 51
14.012
  0
LINE
  8
0
 10
79.042
 20
-7.545
 11
82.153
 21
4.922
  0
LINE
  8
0
 10
78.460
 20
-4.922
 11
81.571
 21
7.545
  0
ARC
  8
0
 10
82.153
 20
7.400
 40
0.600
 50
14.012
 51
-165.988
  0
LINE
  8
0
 10
81.571
 20
7.255
 11
85.265
 21
-7.545
  0
LINE
  8
0
 10
82.736
 20
7.545
 11
86.429
 21
-7.255
  0
ARC
  8
0
 10
85.847
 20
-7.400
 40
0.600
 50
-165.988
 51
14.012
  0
LINE
  8
0
 10
86.429
 20
-7.545
 11
89.540
 21
4.922
  0
LINE
  8
0
 10
85.847
 20
-4.922
 11
88.958
 21
7.545
  0
ARC
  8
0
 10
89.540
 20
7.400
 40
0.600
 50
14.012
 51
-165.988
  0
LINE
  8
0
 10
88.958
 20
7.255
 11
92.651
 21
-7.545
  0
LINE
  8
0
 10
90.122
 20
7.545
 11
93.816
 21
-7.255
  0
ARC
  8
0
 10
93.233
 20
-7.400
 40
0.600
 50
-165.988
 51
14.012
  0
LINE
  8
0
 10
93.816
 20
-7.545
 11
96.927
 21
4.922
  0
LINE
  8
0
 10
93.233
 20
-4.922
 11
96.345
 21
7.545
  0
ARC
  8
0
 10
96.927
 20
7.400
 40
0.600
 50
14.012
 51
-165.988
  0
LINE
  8
0
 10
96.345
 20
7.255
 11
100.038
 21
-7.545
  0
LINE
  8
0
 10
97.509
 20
7.545
 11
101.202
 21
-7.255
  0
ARC
  8
0
 10
100.620
 20
-7.400
 40
0.600
 50
-165.988
 51
14.012
  0
LINE
  8
0
 10
101.202
 20
-7.545
 11
104.313
 21
4.922
  0
LINE
  8
0
 10
100.620
 20
-4.922
 11
103.731
 21
7.545
  0
ARC
  8
0
 10
104.313
 20
7.400
 40
0.600
 50
14.012
 51
-165.988
  0
LINE
  8
0
 10
103.731
 20
7.255
 11
107.425
 21
-7.545
  0
LINE
  8
0
 10
104.896
 20
7.545
 11
108.589
 21
-7.255
  0
ARC
  8
0
 10
108.007
 20
-7.400
 40
0.600
 50
-165.988
 51
14.012
  0
LINE
  8
0
 10
108.589
 20
-7.545
 11
111.700
 21
4.922
  0
LINE
  8
0
 10
108.007
 20
-4.922
 11
111.118
 21
7.545
  0
ARC
  8
0
 10
111.700
 20
7.400
 40
0.600
 50
14.012
 51
-165.988
  0
LINE
  8
0
 10
111.118
 20
7.255
 11
114.811
 21
-7.545
  0
LINE
  8
0
 10
112.282
 20
7.545
 11
115.976
 21
-7.255
  0
ARC
  8
0
 10
115.393
 20
-7.400
 40
0.600
 50
-165.988
 51
14.012
  0
LINE
  8
0
 10
115.393
 20
-4.922
 11
118.505
 21
7.545
  0
LINE
  8
0
 10
115.976
 20
-7.545
 11
118.657
 21
3.198
  0
ARC
  8
0
 10
119.087
 20
7.400
 40
0.600
 50
2.322
 51
-177.678
  0
LINE
  8
0
 10
118.487
 20
7.376
 11
119.087
 21
-7.424
  0
LINE
  8
0
 10
119.686
 20
7.424
 11
119.987
 21
0.012
  0
ARC
  8
0
 10
119.687
 20
-7.400
 40
0.600
 50
-177.678
 51
-60.000
  0
ARC
  8
0
 10
120.287
 20
7.400
 40
0.600
 50
120.000
 51
-120.000
  0
LINE
  8
0
 10
119.987
 20
7.920
 11
119.987
 21
-7.920
  0
ENDSEC
  0
EOF
