  0
SECTION
  2
ENTITIES
  0
ARC
  8
0
 10
-0.350
 20
8.300
 40
0.700
 50
0.000
 51
60.000
  0
ARC
  8
0
 10
0.350
 20
-8.300
 40
0.700
 50
-120.000
 51
0.000
  0
LINE
  8
0
 10
0.000
 20
8.906
 11
0.000
 21
-8.906
  0
LINE
  8
0
 10
0.350
 20
8.300
 11
1.050
 21
-8.300
  0
LINE
  8
0
 10
1.049
 20
-8.329
 11
1.536
 21
3.209
  0
ARC
  8
0
 10
1.050
 20
8.300
 40
0.700
 50
13.318
 51
-166.682
  0
LINE
  8
0
 10
0.369
 20
8.139
 11
4.299
 21
-8.461
  0
LINE
  8
0
 10
1.731
 20
8.461
 11
5.661
 21
-8.139
  0
ARC
  8
0
 10
4.980
 20
-8.300
 40
0.700
 50
-166.682
 51
13.318
  0
LINE
  8
0
 10
5.661
 20
-8.461
 11
8.909
 21
5.261
  0
LINE
  8
0
 10
4.980
 20
-5.261
 11
8.228
 21
8.461
  0
ARC
  8
0
 10
8.909
 20
8.300
 40
0.700
 50
13.318
 51
-166.682
  0
LINE
  8
0
 10
8.228
 20
8.139
 11
12.158
 21
-8.461
  0
LINE
  8
0
 10
9.591
 20
8.461
 11
13.520
 21
-8.139
  0
ARC
  8
0
 10
12.839
 20
-8.300
 40
0.700
 50
-166.682
 51
13.318
  0
LINE
  8
0
 10
13.520
 20
-8.461
 11
16.769
 21
5.261
  0
LINE
  8
0
 10
12.839
 20
-5.261
 11
16.088
 21
8.461
  0
ARC
  8
0
 10
16.769
 20
8.300
 40
0.700
 50
13.318
 51
-166.682
  0
LINE
  8
0
 10
16.088
 20
8.139
 11
20.017
 21
-8.461
  0
LINE
  8
0
 10
17.450
 20
8.461
 11
21.380
 21
-8.139
  0
ARC
  8
0
 10
20.699
 20
-8.300
 40
0.700
 50
-166.682
 51
13.318
  0
LINE
  8
0
 10
21.380
 20
-8.461
 11
24.628
 21
5.261
  0
LINE
  8
0
 10
20.699
 20
-5.261
 11
23.947
 21
8.461
  0
ARC
  8
0
 10
24.628
 20
8.300
 40
0.700
 50
13.318
 51
-166.682
  0
LINE
  8
0
 10
23.947
 20
8.139
 11
27.877
 21
-8.461
  0
LINE
  8
0
 10
25.310
 20
8.461
 11
29.239
 21
-8.139
  0
ARC
  8
0
 10
28.558
 20
-8.300
 40
0.700
 50
-166.682
 51
13.318
  0
LINE
  8
0
 10
29.239
 20
-8.461
 11
32.488
 21
5.261
  0
LINE
  8
0
 10
28.558
 20
-5.261
 11
31.807
 21
8.461
  0
ARC
  8
0
 10
32.488
 20
8.300
 40
0.700
 50
13.318
 51
-166.682
  0
LINE
  8
0
 10
31.807
 20
8.139
 11
35.736
 21
-8.461
  0
LINE
  8
0
 10
33.169
 20
8.461
 11
37.099
 21
-8.139
  0
ARC
  8
0
 10
36.418
 20
-8.300
 40
0.700
 50
-166.682
 51
13.318
  0
LINE
  8
0
 10
37.099
 20
-8.461
 11
40.347
 21
5.261
  0
LINE
  8
0
 10
36.418
 20
-5.261
 11
39.666
 21
8.461
  0
ARC
  8
0
 10
40.347
 20
8.300
 40
0.700
 50
13.318
 51
-166.682
  0
LINE
  8
0
 10
39.666
 20
8.139
 11
43.596
 21
-8.461
  0
LINE
  8
0
 10
41.028
 20
8.461
 11
44.958
 21
-8.139
  0
ARC
  8
0
 10
44.277
 20
-8.300
 40
0.700
 50
-166.682
 51
13.318
  0
LINE
  8
0
 10
44.958
 20
-8.461
 11
48.207
 21
5.261
  0
LINE
  8
0
 10
44.277
 20
-5.261
 11
47.526
 21
8.461
  0
ARC
  8
0
 10
48.207
 20
8.300
 40
0.700
 50
13.318
 51
-166.682
  0
LINE
  8
0
 10
47.526
 20
8.139
 11
51.455
 21
-8.461
  0
LINE
  8
0
 10
48.888
 20
8.461
 11
52.818
 21
-8.139
  0
ARC
  8
0
 10
52.136
 20
-8.300
 40
0.700
 50
-166.682
 51
13.318
  0
LINE
  8
0
 10
52.818
 20
-8.461
 11
56.066
 21
5.261
  0
LINE
  8
0
 10
52.136
 20
-5.261
 11
55.385
 21
8.461
  0
ARC
  8
0
 10
56.066
 20
8.300
 40
0.700
 50
13.318
 51
-166.682
  0
LINE
  8
0
 10
55.385
 20
8.139
 11
59.315
 21
-8.461
  0
LINE
  8
0
 10
56.747
 20
8.461
 11
60.677
 21
-8.139
  0
ARC
  8
0
 10
59.996
 20
-8.300
 40
0.700
 50
-166.682
 51
13.318
  0
LINE
  8
0
 10
60.677
 20
-8.461
 11
63.926
 21
5.261
  0
LINE
  8
0
 10
59.996
 20
-5.261
 11
63.244
 21
8.461
  0
ARC
  8
0
 10
63.926
 20
8.300
 40
0.700
 50
13.318
 51
-166.682
  0
LINE
  8
0
 10
63.244
 20
8.139
 11
67.174
 21
-8.461
  0
LINE
  8
0
 10
64.607
 20
8.461
 11
68.537
 21
-8.139
  0
ARC
  8
0
 10
67.855
 20
-8.300
 40
0.700
 50
-166.682
 51
13.318
  0
LINE
  8
0
 10
68.537
 20
-8.461
 11
71.785
 21
5.261
  0
LINE
  8
0
 10
67.855
 20
-5.261
 11
71.104
 21
8.461
  0
ARC
  8
0
 10
71.785
 20
8.300
 40
0.700
 50
13.318
 51
-166.682
  0
LINE
  8
0
 10
71.104
 20
8.139
 11
75.034
 21
-8.461
  0
LINE
  8
0
 10
72.466
 20
8.461
 11
76.396
 21
-8.139
  0
ARC
  8
0
 10
75.715
 20
-8.300
 40
0.700
 50
-166.682
 51
13.318
  0
LINE
  8
0
 10
76.396
 20
-8.461
 11
79.645
 21
5.261
  0
LINE
  8
0
 10
75.715
 20
-5.261
 11
78.963
 21
8.461
  0
ARC
  8
0
 10
79.645
 20
8.300
 40
0.700
 50
13.318
 51
-166.682
  0
LINE
  8
0
 10
78.963
 20
8.139
 11
82.893
 21
-8.461
  0
LINE
  8
0
 10
80.326
 20
8.461
 11
84.255
 21
-8.139
  0
ARC
  8
0
 10
83.574
 20
-8.300
 40
0.700
 50
-166.682
 51
13.318
  0
LINE
  8
0
 10
84.255
 20
-8.461
 11
87.504
 21
5.261
  0
LINE
  8
0
 10
83.574
 20
-5.261
 11
86.823
 21
8.461
  0
ARC
  8
0
 10
87.504
 20
8.300
 40
0.700
 50
13.318
 51
-166.682
  0
LINE
  8
0
 10
86.823
 20
8.139
 11
90.753
 21
-8.461
  0
LINE
  8
0
 10
88.185
 20
8.461
 11
92.115
 21
-8.139
  0
ARC
  8
0
 10
91.434
 20
-8.300
 40
0.700
 50
-166.682
 51
13.318
  0
LINE
  8
0
 10
92.115
 20
-8.461
 11
95.364
 21
5.261
  0
LINE
  8
0
 10
91.434
 20
-5.261
 11
94.682
 21
8.461
  0
ARC
  8
0
 10
95.364
 20
8.300
 40
0.700
 50
13.318
 51
-166.682
  0
LINE
  8
0
 10
94.682
 20
8.139
 11
98.612
 21
-8.461
  0
LINE
  8
0
 10
96.045
 20
8.461
 11
99.974
 21
-8.139
  0
ARC
  8
0
 10
99.293
 20
-8.300
 40
0.700
 50
-166.682
 51
13.318
  0
LINE
  8
0
 10
99.974
 20
-8.461
 11
103.223
 21
5.261
  0
LINE
  8
0
 10
99.293
 20
-5.261
 11
102.542
 21
8.461
  0
ARC
  8
0
 10
103.223
 20
8.300
 40
0.700
 50
13.318
 51
-166.682
  0
LINE
  8
0
 10
102.542
 20
8.139
 11
106.472
 21
-8.461
  0
LINE
  8
0
 10
103.904
 20
8.461
 11
107.834
 21
-8.139
  0
ARC
  8
0
 10
107.153
 20
-8.300
 40
0.700
 50
-166.682
 51
13.318
  0
LINE
  8
0
 10
107.834
 20
-8.461
 11
111.082
 21
5.261
  0
LINE
  8
0
 10
107.153
 20
-5.261
 11
110.401
 21
8.461
  0
ARC
  8
0
 10
111.082
 20
8.300
 40
0.700
 50
13.318
 51
-166.682
  0
LINE
  8
0
 10
110.401
 20
8.139
 11
114.331
 21
-8.461
  0
LINE
  8
0
 10
111.764
 20
8.461
 11
115.693
 21
-8.139
  0
ARC
  8
0
 10
115.012
 20
-8.300
 40
0.700
 50
-166.682
 51
13.318
  0
LINE
  8
0
 10
115.012
 20
-5.261
 11
118.261
 21
8.461
  0
LINE
  8
0
 10
115.693
 20
-8.461
 11
118.456
 21
3.209
  0
ARC
  8
0
 10
118.942
 20
8.300
 40
0.700
 50
2.415
 51
-177.585
  0
LINE
  8
0
 10
118.243
 20
8.271
 11
118.943
 21
-8.329
  0
LINE
  8
0
 10
119.641
 20
8.329
 11
119.992
 21
0.015
  0
ARC
  8
0
 10
119.642
 20
-8.300
 40
0.700
 50
-177.585
 51
-60.000
  0
ARC
  8
0
 10
120.342
 20
8.300
 40
0.700
 50
120.000
 51
-120.000
  0
LINE
  8
0
 10
119.992
 20
8.906
 11
119.992
 21
-8.906
  0
ENDSEC
  0
EOF
