  0
SECTION
  2
ENTITIES
  0
ARC
  8
0
 10
-0.575
 20
12.850
 40
1.150
 50
0.000
 51
60.000
  0
ARC
  8
0
 10
0.575
 20
-12.850
 40
1.150
 50
-120.000
 51
0.000
  0
LINE
  8
0
 10
0.000
 20
13.846
 11
0.000
 21
-13.846
  0
LINE
  8
0
 10
0.575
 20
12.850
 11
1.725
 21
-12.850
  0
LINE
  8
0
 10
1.724
 20
-12.901
 11
2.457
 21
3.473
  0
ARC
  8
0
 10
1.725
 20
12.850
 40
1.150
 50
11.484
 51
-168.516
  0
LINE
  8
0
 10
0.598
 20
12.621
 11
5.819
 21
-13.079
  0
LINE
  8
0
 10
2.852
 20
13.079
 11
8.073
 21
-12.621
  0
ARC
  8
0
 10
6.946
 20
-12.850
 40
1.150
 50
-168.516
 51
11.484
  0
LINE
  8
0
 10
8.073
 20
-13.079
 11
12.168
 21
7.074
  0
LINE
  8
0
 10
6.946
 20
-7.074
 11
11.041
 21
13.079
  0
ARC
  8
0
 10
12.168
 20
12.850
 40
1.150
 50
11.484
 51
-168.516
  0
LINE
  8
0
 10
11.041
 20
12.621
 11
16.262
 21
-13.079
  0
LINE
  8
0
 10
13.294
 20
13.079
 11
18.516
 21
-12.621
  0
ARC
  8
0
 10
17.389
 20
-12.850
 40
1.150
 50
-168.516
 51
11.484
  0
LINE
  8
0
 10
18.516
 20
-13.079
 11
22.610
 21
7.074
  0
LINE
  8
0
 10
17.389
 20
-7.074
 11
21.483
 21
13.079
  0
ARC
  8
0
 10
22.610
 20
12.850
 40
1.150
 50
11.484
 51
-168.516
  0
LINE
  8
0
 10
21.483
 20
12.621
 11
26.704
 21
-13.079
  0
LINE
  8
0
 10
23.737
 20
13.079
 11
28.958
 21
-12.621
  0
ARC
  8
0
 10
27.831
 20
-12.850
 40
1.150
 50
-168.516
 51
11.484
  0
LINE
  8
0
 10
28.958
 20
-13.079
 11
33.053
 21
7.074
  0
LINE
  8
0
 10
27.831
 20
-7.074
 11
31.926
 21
13.079
  0
ARC
  8
0
 10
33.053
 20
12.850
 40
1.150
 50
11.484
 51
-168.516
  0
LINE
  8
0
 10
31.926
 20
12.621
 11
37.147
 21
-13.079
  0
LINE
  8
0
 10
34.180
 20
13.079
 11
39.401
 21
-12.621
  0
ARC
  8
0
 10
38.274
 20
-12.850
 40
1.150
 50
-168.516
 51
11.484
  0
LINE
  8
0
 10
37.542
 20
-3.473
 11
38.275
 21
12.901
  0
LINE
  8
0
 10
38.274
 20
12.850
 11
39.424
 21
-12.850
  0
LINE
  8
0
 10
39.999
 20
13.846
 11
39.999
 21
-13.846
  0
ARC
  8
0
 10
40.574
 20
-12.850
 40
1.150
 50
180.000
 51
-120.000
  0
ARC
  8
0
 10
39.424
 20
12.850
 40
1.150
 50
60.000
 51
180.000
  0
ENDSEC
  0
EOF
