  0
SECTION
  2
ENTITIES
  0
ARC
  8
0
 10
0.080
 20
0.770
 40
0.080
 50
0.000
 51
180.000
  0
ARC
  8
0
 10
0.080
 20
-0.770
 40
0.080
 50
180.000
 51
0.000
  0
LINE
  8
0
 10
0.000
 20
0.770
 11
0.000
 21
-0.770
  0
LINE
  8
0
 10
0.160
 20
0.770
 11
0.160
 21
-0.770
  0
LINE
  8
0
 10
0.160
 20
-0.778
 11
0.269
 21
0.277
  0
ARC
  8
0
 10
0.240
 20
0.770
 40
0.080
 50
12.716
 51
-167.284
  0
LINE
  8
0
 10
0.162
 20
0.752
 11
0.509
 21
-0.788
  0
LINE
  8
0
 10
0.318
 20
0.788
 11
0.666
 21
-0.752
  0
ARC
  8
0
 10
0.587
 20
-0.770
 40
0.080
 50
-167.284
 51
12.716
  0
LINE
  8
0
 10
0.666
 20
-0.788
 11
0.935
 21
0.407
  0
LINE
  8
0
 10
0.587
 20
-0.407
 11
0.857
 21
0.788
  0
ARC
  8
0
 10
0.935
 20
0.770
 40
0.080
 50
12.716
 51
-167.284
  0
LINE
  8
0
 10
0.857
 20
0.752
 11
1.204
 21
-0.788
  0
LINE
  8
0
 10
1.013
 20
0.788
 11
1.361
 21
-0.752
  0
ARC
  8
0
 10
1.282
 20
-0.770
 40
0.080
 50
-167.284
 51
12.716
  0
LINE
  8
0
 10
1.361
 20
-0.788
 11
1.630
 21
0.407
  0
LINE
  8
0
 10
1.282
 20
-0.407
 11
1.552
 21
0.788
  0
ARC
  8
0
 10
1.630
 20
0.770
 40
0.080
 50
12.716
 51
-167.284
  0
LINE
  8
0
 10
1.552
 20
0.752
 11
1.899
 21
-0.788
  0
LINE
  8
0
 10
1.708
 20
0.788
 11
2.056
 21
-0.752
  0
ARC
  8
0
 10
1.977
 20
-0.770
 40
0.080
 50
-167.284
 51
12.716
  0
LINE
  8
0
 10
2.056
 20
-0.788
 11
2.325
 21
0.407
  0
LINE
  8
0
 10
1.977
 20
-0.407
 11
2.247
 21
0.788
  0
ARC
  8
0
 10
2.325
 20
0.770
 40
0.080
 50
12.716
 51
-167.284
  0
LINE
  8
0
 10
2.247
 20
0.752
 11
2.594
 21
-0.788
  0
LINE
  8
0
 10
2.403
 20
0.788
 11
2.751
 21
-0.752
  0
ARC
  8
0
 10
2.672
 20
-0.770
 40
0.080
 50
-167.284
 51
12.716
  0
LINE
  8
0
 10
2.751
 20
-0.788
 11
3.020
 21
0.407
  0
LINE
  8
0
 10
2.672
 20
-0.407
 11
2.942
 21
0.788
  0
ARC
  8
0
 10
3.020
 20
0.770
 40
0.080
 50
12.716
 51
-167.284
  0
LINE
  8
0
 10
2.942
 20
0.752
 11
3.289
 21
-0.788
  0
LINE
  8
0
 10
3.098
 20
0.788
 11
3.445
 21
-0.752
  0
ARC
  8
0
 10
3.367
 20
-0.770
 40
0.080
 50
-167.284
 51
12.716
  0
LINE
  8
0
 10
3.445
 20
-0.788
 11
3.715
 21
0.407
  0
LINE
  8
0
 10
3.367
 20
-0.407
 11
3.637
 21
0.788
  0
ARC
  8
0
 10
3.715
 20
0.770
 40
0.080
 50
12.716
 51
-167.284
  0
LINE
  8
0
 10
3.637
 20
0.752
 11
3.984
 21
-0.788
  0
LINE
  8
0
 10
3.793
 20
0.788
 11
4.140
 21
-0.752
  0
ARC
  8
0
 10
4.062
 20
-0.770
 40
0.080
 50
-167.284
 51
12.716
  0
LINE
  8
0
 10
4.140
 20
-0.788
 11
4.410
 21
0.407
  0
LINE
  8
0
 10
4.062
 20
-0.407
 11
4.332
 21
0.788
  0
ARC
  8
0
 10
4.410
 20
0.770
 40
0.080
 50
12.716
 51
-167.284
  0
LINE
  8
0
 10
4.332
 20
0.752
 11
4.679
 21
-0.788
  0
LINE
  8
0
 10
4.488
 20
0.788
 11
4.835
 21
-0.752
  0
ARC
  8
0
 10
4.757
 20
-0.770
 40
0.080
 50
-167.284
 51
12.716
  0
LINE
  8
0
 10
4.728
 20
-0.277
 11
4.838
 21
0.778
  0
LINE
  8
0
 10
4.837
 20
0.770
 11
4.837
 21
-0.770
  0
LINE
  8
0
 10
4.997
 20
0.770
 11
4.997
 21
-0.770
  0
ARC
  8
0
 10
4.917
 20
-0.770
 40
0.080
 50
180.000
 51
0.000
  0
ARC
  8
0
 10
4.917
 20
0.770
 40
0.080
 50
0.000
 51
180.000
  0
ENDSEC
  0
EOF
