  0
SECTION
  2
ENTITIES
  0
ARC
  8
0
 10
0.080
 20
0.770
 40
0.080
 50
0.000
 51
180.000
  0
ARC
  8
0
 10
0.080
 20
-0.770
 40
0.080
 50
180.000
 51
0.000
  0
LINE
  8
0
 10
0.000
 20
0.770
 11
0.000
 21
-0.770
  0
LINE
  8
0
 10
0.160
 20
0.770
 11
0.160
 21
-0.770
  0
LINE
  8
0
 10
0.160
 20
-0.778
 11
0.268
 21
0.265
  0
ARC
  8
0
 10
0.240
 20
0.770
 40
0.080
 50
12.259
 51
-167.741
  0
LINE
  8
0
 10
0.162
 20
0.753
 11
0.496
 21
-0.787
  0
LINE
  8
0
 10
0.318
 20
0.787
 11
0.653
 21
-0.753
  0
ARC
  8
0
 10
0.575
 20
-0.770
 40
0.080
 50
-167.741
 51
12.259
  0
LINE
  8
0
 10
0.653
 20
-0.787
 11
0.909
 21
0.393
  0
LINE
  8
0
 10
0.575
 20
-0.393
 11
0.831
 21
0.787
  0
ARC
  8
0
 10
0.909
 20
0.770
 40
0.080
 50
12.259
 51
-167.741
  0
LINE
  8
0
 10
0.831
 20
0.753
 11
1.166
 21
-0.787
  0
LINE
  8
0
 10
0.987
 20
0.787
 11
1.322
 21
-0.753
  0
ARC
  8
0
 10
1.244
 20
-0.770
 40
0.080
 50
-167.741
 51
12.259
  0
LINE
  8
0
 10
1.322
 20
-0.787
 11
1.579
 21
0.393
  0
LINE
  8
0
 10
1.244
 20
-0.393
 11
1.500
 21
0.787
  0
ARC
  8
0
 10
1.579
 20
0.770
 40
0.080
 50
12.259
 51
-167.741
  0
LINE
  8
0
 10
1.500
 20
0.753
 11
1.835
 21
-0.787
  0
LINE
  8
0
 10
1.657
 20
0.787
 11
1.991
 21
-0.753
  0
ARC
  8
0
 10
1.913
 20
-0.770
 40
0.080
 50
-167.741
 51
12.259
  0
LINE
  8
0
 10
1.991
 20
-0.787
 11
2.248
 21
0.393
  0
LINE
  8
0
 10
1.913
 20
-0.393
 11
2.170
 21
0.787
  0
ARC
  8
0
 10
2.248
 20
0.770
 40
0.080
 50
12.259
 51
-167.741
  0
LINE
  8
0
 10
2.170
 20
0.753
 11
2.504
 21
-0.787
  0
LINE
  8
0
 10
2.326
 20
0.787
 11
2.661
 21
-0.753
  0
ARC
  8
0
 10
2.582
 20
-0.770
 40
0.080
 50
-167.741
 51
12.259
  0
LINE
  8
0
 10
2.661
 20
-0.787
 11
2.917
 21
0.393
  0
LINE
  8
0
 10
2.582
 20
-0.393
 11
2.839
 21
0.787
  0
ARC
  8
0
 10
2.917
 20
0.770
 40
0.080
 50
12.259
 51
-167.741
  0
LINE
  8
0
 10
2.839
 20
0.753
 11
3.173
 21
-0.787
  0
LINE
  8
0
 10
2.995
 20
0.787
 11
3.330
 21
-0.753
  0
ARC
  8
0
 10
3.252
 20
-0.770
 40
0.080
 50
-167.741
 51
12.259
  0
LINE
  8
0
 10
3.330
 20
-0.787
 11
3.586
 21
0.393
  0
LINE
  8
0
 10
3.252
 20
-0.393
 11
3.508
 21
0.787
  0
ARC
  8
0
 10
3.586
 20
0.770
 40
0.080
 50
12.259
 51
-167.741
  0
LINE
  8
0
 10
3.508
 20
0.753
 11
3.843
 21
-0.787
  0
LINE
  8
0
 10
3.664
 20
0.787
 11
3.999
 21
-0.753
  0
ARC
  8
0
 10
3.921
 20
-0.770
 40
0.080
 50
-167.741
 51
12.259
  0
LINE
  8
0
 10
3.999
 20
-0.787
 11
4.256
 21
0.393
  0
LINE
  8
0
 10
3.921
 20
-0.393
 11
4.177
 21
0.787
  0
ARC
  8
0
 10
4.256
 20
0.770
 40
0.080
 50
12.259
 51
-167.741
  0
LINE
  8
0
 10
4.177
 20
0.753
 11
4.512
 21
-0.787
  0
LINE
  8
0
 10
4.334
 20
0.787
 11
4.668
 21
-0.753
  0
ARC
  8
0
 10
4.590
 20
-0.770
 40
0.080
 50
-167.741
 51
12.259
  0
LINE
  8
0
 10
4.668
 20
-0.787
 11
4.925
 21
0.393
  0
LINE
  8
0
 10
4.590
 20
-0.393
 11
4.847
 21
0.787
  0
ARC
  8
0
 10
4.925
 20
0.770
 40
0.080
 50
12.259
 51
-167.741
  0
LINE
  8
0
 10
4.847
 20
0.753
 11
5.181
 21
-0.787
  0
LINE
  8
0
 10
5.003
 20
0.787
 11
5.338
 21
-0.753
  0
ARC
  8
0
 10
5.259
 20
-0.770
 40
0.080
 50
-167.741
 51
12.259
  0
LINE
  8
0
 10
5.338
 20
-0.787
 11
5.594
 21
0.393
  0
LINE
  8
0
 10
5.259
 20
-0.393
 11
5.516
 21
0.787
  0
ARC
  8
0
 10
5.594
 20
0.770
 40
0.080
 50
12.259
 51
-167.741
  0
LINE
  8
0
 10
5.516
 20
0.753
 11
5.850
 21
-0.787
  0
LINE
  8
0
 10
5.672
 20
0.787
 11
6.007
 21
-0.753
  0
ARC
  8
0
 10
5.929
 20
-0.770
 40
0.080
 50
-167.741
 51
12.259
  0
LINE
  8
0
 10
5.929
 20
-0.393
 11
6.185
 21
0.787
  0
LINE
  8
0
 10
6.007
 20
-0.787
 11
6.235
 21
0.265
  0
ARC
  8
0
 10
6.263
 20
0.770
 40
0.080
 50
5.932
 51
-174.068
  0
LINE
  8
0
 10
6.184
 20
0.762
 11
6.344
 21
-0.778
  0
LINE
  8
0
 10
6.343
 20
0.778
 11
6.503
 21
-0.766
  0
ARC
  8
0
 10
6.423
 20
-0.770
 40
0.080
 50
-174.068
 51
0.000
  0
CIRCLE
  8
0
 10
6.423
 20
0.770
 40
0.080
  0
LINE
  8
0
 10
6.503
 20
0.770
 11
6.503
 21
-0.770
  0
ENDSEC
  0
EOF
