  0
SECTION
  2
ENTITIES
  0
ARC
  8
0
 10
0.080
 20
0.770
 40
0.080
 50
0.000
 51
180.000
  0
ARC
  8
0
 10
0.080
 20
-0.770
 40
0.080
 50
180.000
 51
0.000
  0
LINE
  8
0
 10
0.000
 20
0.770
 11
0.000
 21
-0.770
  0
LINE
  8
0
 10
0.160
 20
0.770
 11
0.160
 21
-0.770
  0
LINE
  8
0
 10
0.160
 20
-0.778
 11
0.269
 21
0.272
  0
ARC
  8
0
 10
0.240
 20
0.770
 40
0.080
 50
12.515
 51
-167.485
  0
LINE
  8
0
 10
0.162
 20
0.753
 11
0.504
 21
-0.787
  0
LINE
  8
0
 10
0.318
 20
0.787
 11
0.660
 21
-0.753
  0
ARC
  8
0
 10
0.582
 20
-0.770
 40
0.080
 50
-167.485
 51
12.515
  0
LINE
  8
0
 10
0.660
 20
-0.787
 11
0.924
 21
0.401
  0
LINE
  8
0
 10
0.582
 20
-0.401
 11
0.846
 21
0.787
  0
ARC
  8
0
 10
0.924
 20
0.770
 40
0.080
 50
12.515
 51
-167.485
  0
LINE
  8
0
 10
0.846
 20
0.753
 11
1.187
 21
-0.787
  0
LINE
  8
0
 10
1.002
 20
0.787
 11
1.344
 21
-0.753
  0
ARC
  8
0
 10
1.266
 20
-0.770
 40
0.080
 50
-167.485
 51
12.515
  0
LINE
  8
0
 10
1.344
 20
-0.787
 11
1.607
 21
0.401
  0
LINE
  8
0
 10
1.266
 20
-0.401
 11
1.529
 21
0.787
  0
ARC
  8
0
 10
1.607
 20
0.770
 40
0.080
 50
12.515
 51
-167.485
  0
LINE
  8
0
 10
1.529
 20
0.753
 11
1.871
 21
-0.787
  0
LINE
  8
0
 10
1.685
 20
0.787
 11
2.027
 21
-0.753
  0
ARC
  8
0
 10
1.949
 20
-0.770
 40
0.080
 50
-167.485
 51
12.515
  0
LINE
  8
0
 10
2.027
 20
-0.787
 11
2.291
 21
0.401
  0
LINE
  8
0
 10
1.949
 20
-0.401
 11
2.213
 21
0.787
  0
ARC
  8
0
 10
2.291
 20
0.770
 40
0.080
 50
12.515
 51
-167.485
  0
LINE
  8
0
 10
2.213
 20
0.753
 11
2.555
 21
-0.787
  0
LINE
  8
0
 10
2.369
 20
0.787
 11
2.711
 21
-0.753
  0
ARC
  8
0
 10
2.633
 20
-0.770
 40
0.080
 50
-167.485
 51
12.515
  0
LINE
  8
0
 10
2.711
 20
-0.787
 11
2.975
 21
0.401
  0
LINE
  8
0
 10
2.633
 20
-0.401
 11
2.897
 21
0.787
  0
ARC
  8
0
 10
2.975
 20
0.770
 40
0.080
 50
12.515
 51
-167.485
  0
LINE
  8
0
 10
2.897
 20
0.753
 11
3.238
 21
-0.787
  0
LINE
  8
0
 10
3.053
 20
0.787
 11
3.395
 21
-0.753
  0
ARC
  8
0
 10
3.317
 20
-0.770
 40
0.080
 50
-167.485
 51
12.515
  0
LINE
  8
0
 10
3.395
 20
-0.787
 11
3.658
 21
0.401
  0
LINE
  8
0
 10
3.317
 20
-0.401
 11
3.580
 21
0.787
  0
ARC
  8
0
 10
3.658
 20
0.770
 40
0.080
 50
12.515
 51
-167.485
  0
LINE
  8
0
 10
3.580
 20
0.753
 11
3.922
 21
-0.787
  0
LINE
  8
0
 10
3.737
 20
0.787
 11
4.078
 21
-0.753
  0
ARC
  8
0
 10
4.000
 20
-0.770
 40
0.080
 50
-167.485
 51
12.515
  0
LINE
  8
0
 10
4.078
 20
-0.787
 11
4.342
 21
0.401
  0
LINE
  8
0
 10
4.000
 20
-0.401
 11
4.264
 21
0.787
  0
ARC
  8
0
 10
4.342
 20
0.770
 40
0.080
 50
12.515
 51
-167.485
  0
LINE
  8
0
 10
4.264
 20
0.753
 11
4.606
 21
-0.787
  0
LINE
  8
0
 10
4.420
 20
0.787
 11
4.762
 21
-0.753
  0
ARC
  8
0
 10
4.684
 20
-0.770
 40
0.080
 50
-167.485
 51
12.515
  0
LINE
  8
0
 10
4.762
 20
-0.787
 11
5.026
 21
0.401
  0
LINE
  8
0
 10
4.684
 20
-0.401
 11
4.948
 21
0.787
  0
ARC
  8
0
 10
5.026
 20
0.770
 40
0.080
 50
12.515
 51
-167.485
  0
LINE
  8
0
 10
4.948
 20
0.753
 11
5.290
 21
-0.787
  0
LINE
  8
0
 10
5.104
 20
0.787
 11
5.446
 21
-0.753
  0
ARC
  8
0
 10
5.368
 20
-0.770
 40
0.080
 50
-167.485
 51
12.515
  0
LINE
  8
0
 10
5.446
 20
-0.787
 11
5.709
 21
0.401
  0
LINE
  8
0
 10
5.368
 20
-0.401
 11
5.631
 21
0.787
  0
ARC
  8
0
 10
5.709
 20
0.770
 40
0.080
 50
12.515
 51
-167.485
  0
LINE
  8
0
 10
5.631
 20
0.753
 11
5.973
 21
-0.787
  0
LINE
  8
0
 10
5.788
 20
0.787
 11
6.129
 21
-0.753
  0
ARC
  8
0
 10
6.051
 20
-0.770
 40
0.080
 50
-167.485
 51
12.515
  0
LINE
  8
0
 10
6.129
 20
-0.787
 11
6.393
 21
0.401
  0
LINE
  8
0
 10
6.051
 20
-0.401
 11
6.315
 21
0.787
  0
ARC
  8
0
 10
6.393
 20
0.770
 40
0.080
 50
12.515
 51
-167.485
  0
LINE
  8
0
 10
6.315
 20
0.753
 11
6.657
 21
-0.787
  0
LINE
  8
0
 10
6.471
 20
0.787
 11
6.813
 21
-0.753
  0
ARC
  8
0
 10
6.735
 20
-0.770
 40
0.080
 50
-167.485
 51
12.515
  0
LINE
  8
0
 10
6.813
 20
-0.787
 11
7.077
 21
0.401
  0
LINE
  8
0
 10
6.735
 20
-0.401
 11
6.999
 21
0.787
  0
ARC
  8
0
 10
7.077
 20
0.770
 40
0.080
 50
12.515
 51
-167.485
  0
LINE
  8
0
 10
6.999
 20
0.753
 11
7.341
 21
-0.787
  0
LINE
  8
0
 10
7.155
 20
0.787
 11
7.497
 21
-0.753
  0
ARC
  8
0
 10
7.419
 20
-0.770
 40
0.080
 50
-167.485
 51
12.515
  0
LINE
  8
0
 10
7.419
 20
-0.401
 11
7.682
 21
0.787
  0
LINE
  8
0
 10
7.497
 20
-0.787
 11
7.732
 21
0.272
  0
ARC
  8
0
 10
7.760
 20
0.770
 40
0.080
 50
5.932
 51
-174.068
  0
LINE
  8
0
 10
7.681
 20
0.762
 11
7.841
 21
-0.778
  0
LINE
  8
0
 10
7.840
 20
0.778
 11
8.000
 21
-0.766
  0
ARC
  8
0
 10
7.920
 20
-0.770
 40
0.080
 50
-174.068
 51
0.000
  0
CIRCLE
  8
0
 10
7.920
 20
0.770
 40
0.080
  0
LINE
  8
0
 10
8.000
 20
0.770
 11
8.000
 21
-0.770
  0
ENDSEC
  0
EOF
