  0
SECTION
  2
ENTITIES
  0
ARC
  8
0
 10
0.080
 20
0.770
 40
0.080
 50
0.000
 51
180.000
  0
ARC
  8
0
 10
0.080
 20
-0.770
 40
0.080
 50
180.000
 51
0.000
  0
LINE
  8
0
 10
0.000
 20
0.770
 11
0.000
 21
-0.770
  0
LINE
  8
0
 10
0.160
 20
0.770
 11
0.160
 21
-0.770
  0
LINE
  8
0
 10
0.160
 20
-0.778
 11
0.269
 21
0.271
  0
ARC
  8
0
 10
0.240
 20
0.770
 40
0.080
 50
12.497
 51
-167.503
  0
LINE
  8
0
 10
0.162
 20
0.753
 11
0.503
 21
-0.787
  0
LINE
  8
0
 10
0.318
 20
0.787
 11
0.659
 21
-0.753
  0
ARC
  8
0
 10
0.581
 20
-0.770
 40
0.080
 50
-167.503
 51
12.497
  0
LINE
  8
0
 10
0.659
 20
-0.787
 11
0.923
 21
0.400
  0
LINE
  8
0
 10
0.581
 20
-0.400
 11
0.845
 21
0.787
  0
ARC
  8
0
 10
0.923
 20
0.770
 40
0.080
 50
12.497
 51
-167.503
  0
LINE
  8
0
 10
0.845
 20
0.753
 11
1.186
 21
-0.787
  0
LINE
  8
0
 10
1.001
 20
0.787
 11
1.342
 21
-0.753
  0
ARC
  8
0
 10
1.264
 20
-0.770
 40
0.080
 50
-167.503
 51
12.497
  0
LINE
  8
0
 10
1.342
 20
-0.787
 11
1.605
 21
0.400
  0
LINE
  8
0
 10
1.264
 20
-0.400
 11
1.527
 21
0.787
  0
ARC
  8
0
 10
1.605
 20
0.770
 40
0.080
 50
12.497
 51
-167.503
  0
LINE
  8
0
 10
1.527
 20
0.753
 11
1.868
 21
-0.787
  0
LINE
  8
0
 10
1.683
 20
0.787
 11
2.025
 21
-0.753
  0
ARC
  8
0
 10
1.947
 20
-0.770
 40
0.080
 50
-167.503
 51
12.497
  0
LINE
  8
0
 10
2.025
 20
-0.787
 11
2.288
 21
0.400
  0
LINE
  8
0
 10
1.947
 20
-0.400
 11
2.210
 21
0.787
  0
ARC
  8
0
 10
2.288
 20
0.770
 40
0.080
 50
12.497
 51
-167.503
  0
LINE
  8
0
 10
2.210
 20
0.753
 11
2.551
 21
-0.787
  0
LINE
  8
0
 10
2.366
 20
0.787
 11
2.707
 21
-0.753
  0
ARC
  8
0
 10
2.629
 20
-0.770
 40
0.080
 50
-167.503
 51
12.497
  0
LINE
  8
0
 10
2.707
 20
-0.787
 11
2.971
 21
0.400
  0
LINE
  8
0
 10
2.629
 20
-0.400
 11
2.892
 21
0.787
  0
ARC
  8
0
 10
2.971
 20
0.770
 40
0.080
 50
12.497
 51
-167.503
  0
LINE
  8
0
 10
2.892
 20
0.753
 11
3.234
 21
-0.787
  0
LINE
  8
0
 10
3.049
 20
0.787
 11
3.390
 21
-0.753
  0
ARC
  8
0
 10
3.312
 20
-0.770
 40
0.080
 50
-167.503
 51
12.497
  0
LINE
  8
0
 10
3.390
 20
-0.787
 11
3.653
 21
0.400
  0
LINE
  8
0
 10
3.312
 20
-0.400
 11
3.575
 21
0.787
  0
ARC
  8
0
 10
3.653
 20
0.770
 40
0.080
 50
12.497
 51
-167.503
  0
LINE
  8
0
 10
3.575
 20
0.753
 11
3.916
 21
-0.787
  0
LINE
  8
0
 10
3.731
 20
0.787
 11
4.073
 21
-0.753
  0
ARC
  8
0
 10
3.995
 20
-0.770
 40
0.080
 50
-167.503
 51
12.497
  0
LINE
  8
0
 10
4.073
 20
-0.787
 11
4.336
 21
0.400
  0
LINE
  8
0
 10
3.995
 20
-0.400
 11
4.258
 21
0.787
  0
ARC
  8
0
 10
4.336
 20
0.770
 40
0.080
 50
12.497
 51
-167.503
  0
LINE
  8
0
 10
4.258
 20
0.753
 11
4.599
 21
-0.787
  0
LINE
  8
0
 10
4.414
 20
0.787
 11
4.755
 21
-0.753
  0
ARC
  8
0
 10
4.677
 20
-0.770
 40
0.080
 50
-167.503
 51
12.497
  0
LINE
  8
0
 10
4.755
 20
-0.787
 11
5.018
 21
0.400
  0
LINE
  8
0
 10
4.677
 20
-0.400
 11
4.940
 21
0.787
  0
ARC
  8
0
 10
5.018
 20
0.770
 40
0.080
 50
12.497
 51
-167.503
  0
LINE
  8
0
 10
4.940
 20
0.753
 11
5.282
 21
-0.787
  0
LINE
  8
0
 10
5.097
 20
0.787
 11
5.438
 21
-0.753
  0
ARC
  8
0
 10
5.360
 20
-0.770
 40
0.080
 50
-167.503
 51
12.497
  0
LINE
  8
0
 10
5.438
 20
-0.787
 11
5.701
 21
0.400
  0
LINE
  8
0
 10
5.360
 20
-0.400
 11
5.623
 21
0.787
  0
ARC
  8
0
 10
5.701
 20
0.770
 40
0.080
 50
12.497
 51
-167.503
  0
LINE
  8
0
 10
5.623
 20
0.753
 11
5.964
 21
-0.787
  0
LINE
  8
0
 10
5.779
 20
0.787
 11
6.121
 21
-0.753
  0
ARC
  8
0
 10
6.042
 20
-0.770
 40
0.080
 50
-167.503
 51
12.497
  0
LINE
  8
0
 10
6.121
 20
-0.787
 11
6.384
 21
0.400
  0
LINE
  8
0
 10
6.042
 20
-0.400
 11
6.306
 21
0.787
  0
ARC
  8
0
 10
6.384
 20
0.770
 40
0.080
 50
12.497
 51
-167.503
  0
LINE
  8
0
 10
6.306
 20
0.753
 11
6.647
 21
-0.787
  0
LINE
  8
0
 10
6.462
 20
0.787
 11
6.803
 21
-0.753
  0
ARC
  8
0
 10
6.725
 20
-0.770
 40
0.080
 50
-167.503
 51
12.497
  0
LINE
  8
0
 10
6.803
 20
-0.787
 11
7.066
 21
0.400
  0
LINE
  8
0
 10
6.725
 20
-0.400
 11
6.988
 21
0.787
  0
ARC
  8
0
 10
7.066
 20
0.770
 40
0.080
 50
12.497
 51
-167.503
  0
LINE
  8
0
 10
6.988
 20
0.753
 11
7.330
 21
-0.787
  0
LINE
  8
0
 10
7.145
 20
0.787
 11
7.486
 21
-0.753
  0
ARC
  8
0
 10
7.408
 20
-0.770
 40
0.080
 50
-167.503
 51
12.497
  0
LINE
  8
0
 10
7.486
 20
-0.787
 11
7.749
 21
0.400
  0
LINE
  8
0
 10
7.408
 20
-0.400
 11
7.671
 21
0.787
  0
ARC
  8
0
 10
7.749
 20
0.770
 40
0.080
 50
12.497
 51
-167.503
  0
LINE
  8
0
 10
7.671
 20
0.753
 11
8.012
 21
-0.787
  0
LINE
  8
0
 10
7.827
 20
0.787
 11
8.168
 21
-0.753
  0
ARC
  8
0
 10
8.090
 20
-0.770
 40
0.080
 50
-167.503
 51
12.497
  0
LINE
  8
0
 10
8.168
 20
-0.787
 11
8.432
 21
0.400
  0
LINE
  8
0
 10
8.090
 20
-0.400
 11
8.354
 21
0.787
  0
ARC
  8
0
 10
8.432
 20
0.770
 40
0.080
 50
12.497
 51
-167.503
  0
LINE
  8
0
 10
8.354
 20
0.753
 11
8.695
 21
-0.787
  0
LINE
  8
0
 10
8.510
 20
0.787
 11
8.851
 21
-0.753
  0
ARC
  8
0
 10
8.773
 20
-0.770
 40
0.080
 50
-167.503
 51
12.497
  0
LINE
  8
0
 10
8.851
 20
-0.787
 11
9.114
 21
0.400
  0
LINE
  8
0
 10
8.773
 20
-0.400
 11
9.036
 21
0.787
  0
ARC
  8
0
 10
9.114
 20
0.770
 40
0.080
 50
12.497
 51
-167.503
  0
LINE
  8
0
 10
9.036
 20
0.753
 11
9.378
 21
-0.787
  0
LINE
  8
0
 10
9.192
 20
0.787
 11
9.534
 21
-0.753
  0
ARC
  8
0
 10
9.456
 20
-0.770
 40
0.080
 50
-167.503
 51
12.497
  0
LINE
  8
0
 10
9.456
 20
-0.400
 11
9.719
 21
0.787
  0
LINE
  8
0
 10
9.534
 20
-0.787
 11
9.768
 21
0.271
  0
ARC
  8
0
 10
9.797
 20
0.770
 40
0.080
 50
5.932
 51
-174.068
  0
LINE
  8
0
 10
9.717
 20
0.762
 11
9.877
 21
-0.778
  0
LINE
  8
0
 10
9.877
 20
0.778
 11
10.037
 21
-0.766
  0
ARC
  8
0
 10
9.957
 20
-0.770
 40
0.080
 50
-174.068
 51
0.000
  0
CIRCLE
  8
0
 10
9.957
 20
0.770
 40
0.080
  0
LINE
  8
0
 10
10.037
 20
0.770
 11
10.037
 21
-0.770
  0
ENDSEC
  0
EOF
