  0
SECTION
  2
ENTITIES
  0
ARC
  8
0
 10
0.080
 20
0.770
 40
0.080
 50
0.000
 51
180.000
  0
ARC
  8
0
 10
0.080
 20
-0.770
 40
0.080
 50
180.000
 51
0.000
  0
LINE
  8
0
 10
0.000
 20
0.770
 11
0.000
 21
-0.770
  0
LINE
  8
0
 10
0.160
 20
0.770
 11
0.160
 21
-0.770
  0
LINE
  8
0
 10
0.160
 20
-0.778
 11
0.268
 21
0.268
  0
ARC
  8
0
 10
0.240
 20
0.770
 40
0.080
 50
12.396
 51
-167.604
  0
LINE
  8
0
 10
0.162
 20
0.753
 11
0.500
 21
-0.787
  0
LINE
  8
0
 10
0.318
 20
0.787
 11
0.657
 21
-0.753
  0
ARC
  8
0
 10
0.578
 20
-0.770
 40
0.080
 50
-167.604
 51
12.396
  0
LINE
  8
0
 10
0.657
 20
-0.787
 11
0.917
 21
0.397
  0
LINE
  8
0
 10
0.578
 20
-0.397
 11
0.839
 21
0.787
  0
ARC
  8
0
 10
0.917
 20
0.770
 40
0.080
 50
12.396
 51
-167.604
  0
LINE
  8
0
 10
0.839
 20
0.753
 11
1.177
 21
-0.787
  0
LINE
  8
0
 10
0.995
 20
0.787
 11
1.334
 21
-0.753
  0
ARC
  8
0
 10
1.255
 20
-0.770
 40
0.080
 50
-167.604
 51
12.396
  0
LINE
  8
0
 10
1.334
 20
-0.787
 11
1.594
 21
0.397
  0
LINE
  8
0
 10
1.255
 20
-0.397
 11
1.516
 21
0.787
  0
ARC
  8
0
 10
1.594
 20
0.770
 40
0.080
 50
12.396
 51
-167.604
  0
LINE
  8
0
 10
1.516
 20
0.753
 11
1.854
 21
-0.787
  0
LINE
  8
0
 10
1.672
 20
0.787
 11
2.011
 21
-0.753
  0
ARC
  8
0
 10
1.932
 20
-0.770
 40
0.080
 50
-167.604
 51
12.396
  0
LINE
  8
0
 10
2.011
 20
-0.787
 11
2.271
 21
0.397
  0
LINE
  8
0
 10
1.932
 20
-0.397
 11
2.193
 21
0.787
  0
ARC
  8
0
 10
2.271
 20
0.770
 40
0.080
 50
12.396
 51
-167.604
  0
LINE
  8
0
 10
2.193
 20
0.753
 11
2.531
 21
-0.787
  0
LINE
  8
0
 10
2.349
 20
0.787
 11
2.688
 21
-0.753
  0
ARC
  8
0
 10
2.609
 20
-0.770
 40
0.080
 50
-167.604
 51
12.396
  0
LINE
  8
0
 10
2.688
 20
-0.787
 11
2.948
 21
0.397
  0
LINE
  8
0
 10
2.609
 20
-0.397
 11
2.870
 21
0.787
  0
ARC
  8
0
 10
2.948
 20
0.770
 40
0.080
 50
12.396
 51
-167.604
  0
LINE
  8
0
 10
2.870
 20
0.753
 11
3.208
 21
-0.787
  0
LINE
  8
0
 10
3.026
 20
0.787
 11
3.365
 21
-0.753
  0
ARC
  8
0
 10
3.286
 20
-0.770
 40
0.080
 50
-167.604
 51
12.396
  0
LINE
  8
0
 10
3.365
 20
-0.787
 11
3.625
 21
0.397
  0
LINE
  8
0
 10
3.286
 20
-0.397
 11
3.547
 21
0.787
  0
ARC
  8
0
 10
3.625
 20
0.770
 40
0.080
 50
12.396
 51
-167.604
  0
LINE
  8
0
 10
3.547
 20
0.753
 11
3.885
 21
-0.787
  0
LINE
  8
0
 10
3.703
 20
0.787
 11
4.041
 21
-0.753
  0
ARC
  8
0
 10
3.963
 20
-0.770
 40
0.080
 50
-167.604
 51
12.396
  0
LINE
  8
0
 10
4.041
 20
-0.787
 11
4.302
 21
0.397
  0
LINE
  8
0
 10
3.963
 20
-0.397
 11
4.224
 21
0.787
  0
ARC
  8
0
 10
4.302
 20
0.770
 40
0.080
 50
12.396
 51
-167.604
  0
LINE
  8
0
 10
4.224
 20
0.753
 11
4.562
 21
-0.787
  0
LINE
  8
0
 10
4.380
 20
0.787
 11
4.718
 21
-0.753
  0
ARC
  8
0
 10
4.640
 20
-0.770
 40
0.080
 50
-167.604
 51
12.396
  0
LINE
  8
0
 10
4.718
 20
-0.787
 11
4.979
 21
0.397
  0
LINE
  8
0
 10
4.640
 20
-0.397
 11
4.901
 21
0.787
  0
ARC
  8
0
 10
4.979
 20
0.770
 40
0.080
 50
12.396
 51
-167.604
  0
LINE
  8
0
 10
4.901
 20
0.753
 11
5.239
 21
-0.787
  0
LINE
  8
0
 10
5.057
 20
0.787
 11
5.395
 21
-0.753
  0
ARC
  8
0
 10
5.317
 20
-0.770
 40
0.080
 50
-167.604
 51
12.396
  0
LINE
  8
0
 10
5.395
 20
-0.787
 11
5.656
 21
0.397
  0
LINE
  8
0
 10
5.317
 20
-0.397
 11
5.578
 21
0.787
  0
ARC
  8
0
 10
5.656
 20
0.770
 40
0.080
 50
12.396
 51
-167.604
  0
LINE
  8
0
 10
5.578
 20
0.753
 11
5.916
 21
-0.787
  0
LINE
  8
0
 10
5.734
 20
0.787
 11
6.072
 21
-0.753
  0
ARC
  8
0
 10
5.994
 20
-0.770
 40
0.080
 50
-167.604
 51
12.396
  0
LINE
  8
0
 10
6.072
 20
-0.787
 11
6.333
 21
0.397
  0
LINE
  8
0
 10
5.994
 20
-0.397
 11
6.255
 21
0.787
  0
ARC
  8
0
 10
6.333
 20
0.770
 40
0.080
 50
12.396
 51
-167.604
  0
LINE
  8
0
 10
6.255
 20
0.753
 11
6.593
 21
-0.787
  0
LINE
  8
0
 10
6.411
 20
0.787
 11
6.749
 21
-0.753
  0
ARC
  8
0
 10
6.671
 20
-0.770
 40
0.080
 50
-167.604
 51
12.396
  0
LINE
  8
0
 10
6.749
 20
-0.787
 11
7.010
 21
0.397
  0
LINE
  8
0
 10
6.671
 20
-0.397
 11
6.932
 21
0.787
  0
ARC
  8
0
 10
7.010
 20
0.770
 40
0.080
 50
12.396
 51
-167.604
  0
LINE
  8
0
 10
6.932
 20
0.753
 11
7.270
 21
-0.787
  0
LINE
  8
0
 10
7.088
 20
0.787
 11
7.426
 21
-0.753
  0
ARC
  8
0
 10
7.348
 20
-0.770
 40
0.080
 50
-167.604
 51
12.396
  0
LINE
  8
0
 10
7.426
 20
-0.787
 11
7.687
 21
0.397
  0
LINE
  8
0
 10
7.348
 20
-0.397
 11
7.609
 21
0.787
  0
ARC
  8
0
 10
7.687
 20
0.770
 40
0.080
 50
12.396
 51
-167.604
  0
LINE
  8
0
 10
7.609
 20
0.753
 11
7.947
 21
-0.787
  0
LINE
  8
0
 10
7.765
 20
0.787
 11
8.103
 21
-0.753
  0
ARC
  8
0
 10
8.025
 20
-0.770
 40
0.080
 50
-167.604
 51
12.396
  0
LINE
  8
0
 10
8.103
 20
-0.787
 11
8.364
 21
0.397
  0
LINE
  8
0
 10
8.025
 20
-0.397
 11
8.286
 21
0.787
  0
ARC
  8
0
 10
8.364
 20
0.770
 40
0.080
 50
12.396
 51
-167.604
  0
LINE
  8
0
 10
8.286
 20
0.753
 11
8.624
 21
-0.787
  0
LINE
  8
0
 10
8.442
 20
0.787
 11
8.780
 21
-0.753
  0
ARC
  8
0
 10
8.702
 20
-0.770
 40
0.080
 50
-167.604
 51
12.396
  0
LINE
  8
0
 10
8.780
 20
-0.787
 11
9.041
 21
0.397
  0
LINE
  8
0
 10
8.702
 20
-0.397
 11
8.963
 21
0.787
  0
ARC
  8
0
 10
9.041
 20
0.770
 40
0.080
 50
12.396
 51
-167.604
  0
LINE
  8
0
 10
8.963
 20
0.753
 11
9.301
 21
-0.787
  0
LINE
  8
0
 10
9.119
 20
0.787
 11
9.457
 21
-0.753
  0
ARC
  8
0
 10
9.379
 20
-0.770
 40
0.080
 50
-167.604
 51
12.396
  0
LINE
  8
0
 10
9.457
 20
-0.787
 11
9.718
 21
0.397
  0
LINE
  8
0
 10
9.379
 20
-0.397
 11
9.639
 21
0.787
  0
ARC
  8
0
 10
9.718
 20
0.770
 40
0.080
 50
12.396
 51
-167.604
  0
LINE
  8
0
 10
9.639
 20
0.753
 11
9.978
 21
-0.787
  0
LINE
  8
0
 10
9.796
 20
0.787
 11
10.134
 21
-0.753
  0
ARC
  8
0
 10
10.056
 20
-0.770
 40
0.080
 50
-167.604
 51
12.396
  0
LINE
  8
0
 10
10.134
 20
-0.787
 11
10.395
 21
0.397
  0
LINE
  8
0
 10
10.056
 20
-0.397
 11
10.316
 21
0.787
  0
ARC
  8
0
 10
10.395
 20
0.770
 40
0.080
 50
12.396
 51
-167.604
  0
LINE
  8
0
 10
10.316
 20
0.753
 11
10.655
 21
-0.787
  0
LINE
  8
0
 10
10.473
 20
0.787
 11
10.811
 21
-0.753
  0
ARC
  8
0
 10
10.733
 20
-0.770
 40
0.080
 50
-167.604
 51
12.396
  0
LINE
  8
0
 10
10.811
 20
-0.787
 11
11.072
 21
0.397
  0
LINE
  8
0
 10
10.733
 20
-0.397
 11
10.993
 21
0.787
  0
ARC
  8
0
 10
11.072
 20
0.770
 40
0.080
 50
12.396
 51
-167.604
  0
LINE
  8
0
 10
10.993
 20
0.753
 11
11.332
 21
-0.787
  0
LINE
  8
0
 10
11.150
 20
0.787
 11
11.488
 21
-0.753
  0
ARC
  8
0
 10
11.410
 20
-0.770
 40
0.080
 50
-167.604
 51
12.396
  0
LINE
  8
0
 10
11.488
 20
-0.787
 11
11.749
 21
0.397
  0
LINE
  8
0
 10
11.410
 20
-0.397
 11
11.670
 21
0.787
  0
ARC
  8
0
 10
11.749
 20
0.770
 40
0.080
 50
12.396
 51
-167.604
  0
LINE
  8
0
 10
11.670
 20
0.753
 11
12.009
 21
-0.787
  0
LINE
  8
0
 10
11.827
 20
0.787
 11
12.165
 21
-0.753
  0
ARC
  8
0
 10
12.087
 20
-0.770
 40
0.080
 50
-167.604
 51
12.396
  0
LINE
  8
0
 10
12.165
 20
-0.787
 11
12.426
 21
0.397
  0
LINE
  8
0
 10
12.087
 20
-0.397
 11
12.347
 21
0.787
  0
ARC
  8
0
 10
12.426
 20
0.770
 40
0.080
 50
12.396
 51
-167.604
  0
LINE
  8
0
 10
12.347
 20
0.753
 11
12.686
 21
-0.787
  0
LINE
  8
0
 10
12.504
 20
0.787
 11
12.842
 21
-0.753
  0
ARC
  8
0
 10
12.764
 20
-0.770
 40
0.080
 50
-167.604
 51
12.396
  0
LINE
  8
0
 10
12.842
 20
-0.787
 11
13.102
 21
0.397
  0
LINE
  8
0
 10
12.764
 20
-0.397
 11
13.024
 21
0.787
  0
ARC
  8
0
 10
13.102
 20
0.770
 40
0.080
 50
12.396
 51
-167.604
  0
LINE
  8
0
 10
13.024
 20
0.753
 11
13.363
 21
-0.787
  0
LINE
  8
0
 10
13.181
 20
0.787
 11
13.519
 21
-0.753
  0
ARC
  8
0
 10
13.441
 20
-0.770
 40
0.080
 50
-167.604
 51
12.396
  0
LINE
  8
0
 10
13.441
 20
-0.397
 11
13.701
 21
0.787
  0
LINE
  8
0
 10
13.519
 20
-0.787
 11
13.751
 21
0.268
  0
ARC
  8
0
 10
13.779
 20
0.770
 40
0.080
 50
5.932
 51
-174.068
  0
LINE
  8
0
 10
13.700
 20
0.762
 11
13.860
 21
-0.778
  0
LINE
  8
0
 10
13.859
 20
0.778
 11
14.019
 21
-0.766
  0
ARC
  8
0
 10
13.939
 20
-0.770
 40
0.080
 50
-174.068
 51
0.000
  0
CIRCLE
  8
0
 10
13.939
 20
0.770
 40
0.080
  0
LINE
  8
0
 10
14.019
 20
0.770
 11
14.019
 21
-0.770
  0
ENDSEC
  0
EOF
