  0
SECTION
  2
ENTITIES
  0
ARC
  8
0
 10
0.090
 20
0.760
 40
0.090
 50
0.000
 51
180.000
  0
ARC
  8
0
 10
0.090
 20
-0.760
 40
0.090
 50
180.000
 51
0.000
  0
LINE
  8
0
 10
0.000
 20
0.760
 11
0.000
 21
-0.760
  0
LINE
  8
0
 10
0.180
 20
0.760
 11
0.180
 21
-0.760
  0
LINE
  8
0
 10
0.179
 20
-0.771
 11
0.295
 21
0.203
  0
ARC
  8
0
 10
0.270
 20
0.760
 40
0.090
 50
11.823
 51
-168.177
  0
LINE
  8
0
 10
0.182
 20
0.742
 11
0.500
 21
-0.778
  0
LINE
  8
0
 10
0.358
 20
0.778
 11
0.676
 21
-0.742
  0
ARC
  8
0
 10
0.588
 20
-0.760
 40
0.090
 50
-168.177
 51
11.823
  0
LINE
  8
0
 10
0.676
 20
-0.778
 11
0.906
 21
0.321
  0
LINE
  8
0
 10
0.588
 20
-0.321
 11
0.818
 21
0.778
  0
ARC
  8
0
 10
0.906
 20
0.760
 40
0.090
 50
11.823
 51
-168.177
  0
LINE
  8
0
 10
0.818
 20
0.742
 11
1.136
 21
-0.778
  0
LINE
  8
0
 10
0.994
 20
0.778
 11
1.313
 21
-0.742
  0
ARC
  8
0
 10
1.225
 20
-0.760
 40
0.090
 50
-168.177
 51
11.823
  0
LINE
  8
0
 10
1.313
 20
-0.778
 11
1.543
 21
0.321
  0
LINE
  8
0
 10
1.225
 20
-0.321
 11
1.455
 21
0.778
  0
ARC
  8
0
 10
1.543
 20
0.760
 40
0.090
 50
11.823
 51
-168.177
  0
LINE
  8
0
 10
1.455
 20
0.742
 11
1.773
 21
-0.778
  0
LINE
  8
0
 10
1.631
 20
0.778
 11
1.949
 21
-0.742
  0
ARC
  8
0
 10
1.861
 20
-0.760
 40
0.090
 50
-168.177
 51
11.823
  0
LINE
  8
0
 10
1.949
 20
-0.778
 11
2.179
 21
0.321
  0
LINE
  8
0
 10
1.861
 20
-0.321
 11
2.091
 21
0.778
  0
ARC
  8
0
 10
2.179
 20
0.760
 40
0.090
 50
11.823
 51
-168.177
  0
LINE
  8
0
 10
2.091
 20
0.742
 11
2.409
 21
-0.778
  0
LINE
  8
0
 10
2.267
 20
0.778
 11
2.585
 21
-0.742
  0
ARC
  8
0
 10
2.497
 20
-0.760
 40
0.090
 50
-168.177
 51
11.823
  0
LINE
  8
0
 10
2.585
 20
-0.778
 11
2.815
 21
0.321
  0
LINE
  8
0
 10
2.497
 20
-0.321
 11
2.727
 21
0.778
  0
ARC
  8
0
 10
2.815
 20
0.760
 40
0.090
 50
11.823
 51
-168.177
  0
LINE
  8
0
 10
2.727
 20
0.742
 11
3.046
 21
-0.778
  0
LINE
  8
0
 10
2.904
 20
0.778
 11
3.222
 21
-0.742
  0
ARC
  8
0
 10
3.134
 20
-0.760
 40
0.090
 50
-168.177
 51
11.823
  0
LINE
  8
0
 10
3.222
 20
-0.778
 11
3.452
 21
0.321
  0
LINE
  8
0
 10
3.134
 20
-0.321
 11
3.364
 21
0.778
  0
ARC
  8
0
 10
3.452
 20
0.760
 40
0.090
 50
11.823
 51
-168.177
  0
LINE
  8
0
 10
3.364
 20
0.742
 11
3.682
 21
-0.778
  0
LINE
  8
0
 10
3.540
 20
0.778
 11
3.858
 21
-0.742
  0
ARC
  8
0
 10
3.770
 20
-0.760
 40
0.090
 50
-168.177
 51
11.823
  0
LINE
  8
0
 10
3.858
 20
-0.778
 11
4.088
 21
0.321
  0
LINE
  8
0
 10
3.770
 20
-0.321
 11
4.000
 21
0.778
  0
ARC
  8
0
 10
4.088
 20
0.760
 40
0.090
 50
11.823
 51
-168.177
  0
LINE
  8
0
 10
4.000
 20
0.742
 11
4.318
 21
-0.778
  0
LINE
  8
0
 10
4.176
 20
0.778
 11
4.494
 21
-0.742
  0
ARC
  8
0
 10
4.406
 20
-0.760
 40
0.090
 50
-168.177
 51
11.823
  0
LINE
  8
0
 10
4.406
 20
-0.321
 11
4.636
 21
0.778
  0
LINE
  8
0
 10
4.494
 20
-0.778
 11
4.700
 21
0.203
  0
ARC
  8
0
 10
4.725
 20
0.760
 40
0.090
 50
6.754
 51
-173.246
  0
LINE
  8
0
 10
4.635
 20
0.749
 11
4.815
 21
-0.771
  0
LINE
  8
0
 10
4.814
 20
0.771
 11
4.995
 21
-0.755
  0
ARC
  8
0
 10
4.905
 20
-0.760
 40
0.090
 50
-173.246
 51
0.000
  0
CIRCLE
  8
0
 10
4.905
 20
0.760
 40
0.090
  0
LINE
  8
0
 10
4.995
 20
0.760
 11
4.995
 21
-0.760
  0
ENDSEC
  0
EOF
