  0
SECTION
  2
ENTITIES
  0
ARC
  8
0
 10
0.090
 20
0.760
 40
0.090
 50
0.000
 51
180.000
  0
ARC
  8
0
 10
0.090
 20
-0.760
 40
0.090
 50
180.000
 51
0.000
  0
LINE
  8
0
 10
0.000
 20
0.760
 11
0.000
 21
-0.760
  0
LINE
  8
0
 10
0.180
 20
0.760
 11
0.180
 21
-0.760
  0
LINE
  8
0
 10
0.179
 20
-0.771
 11
0.294
 21
0.195
  0
ARC
  8
0
 10
0.270
 20
0.760
 40
0.090
 50
11.549
 51
-168.451
  0
LINE
  8
0
 10
0.182
 20
0.742
 11
0.492
 21
-0.778
  0
LINE
  8
0
 10
0.358
 20
0.778
 11
0.669
 21
-0.742
  0
ARC
  8
0
 10
0.581
 20
-0.760
 40
0.090
 50
-168.451
 51
11.549
  0
LINE
  8
0
 10
0.669
 20
-0.778
 11
0.891
 21
0.310
  0
LINE
  8
0
 10
0.581
 20
-0.310
 11
0.803
 21
0.778
  0
ARC
  8
0
 10
0.891
 20
0.760
 40
0.090
 50
11.549
 51
-168.451
  0
LINE
  8
0
 10
0.803
 20
0.742
 11
1.114
 21
-0.778
  0
LINE
  8
0
 10
0.979
 20
0.778
 11
1.290
 21
-0.742
  0
ARC
  8
0
 10
1.202
 20
-0.760
 40
0.090
 50
-168.451
 51
11.549
  0
LINE
  8
0
 10
1.290
 20
-0.778
 11
1.512
 21
0.310
  0
LINE
  8
0
 10
1.202
 20
-0.310
 11
1.424
 21
0.778
  0
ARC
  8
0
 10
1.512
 20
0.760
 40
0.090
 50
11.549
 51
-168.451
  0
LINE
  8
0
 10
1.424
 20
0.742
 11
1.735
 21
-0.778
  0
LINE
  8
0
 10
1.601
 20
0.778
 11
1.911
 21
-0.742
  0
ARC
  8
0
 10
1.823
 20
-0.760
 40
0.090
 50
-168.451
 51
11.549
  0
LINE
  8
0
 10
1.911
 20
-0.778
 11
2.134
 21
0.310
  0
LINE
  8
0
 10
1.823
 20
-0.310
 11
2.045
 21
0.778
  0
ARC
  8
0
 10
2.134
 20
0.760
 40
0.090
 50
11.549
 51
-168.451
  0
LINE
  8
0
 10
2.045
 20
0.742
 11
2.356
 21
-0.778
  0
LINE
  8
0
 10
2.222
 20
0.778
 11
2.532
 21
-0.742
  0
ARC
  8
0
 10
2.444
 20
-0.760
 40
0.090
 50
-168.451
 51
11.549
  0
LINE
  8
0
 10
2.532
 20
-0.778
 11
2.755
 21
0.310
  0
LINE
  8
0
 10
2.444
 20
-0.310
 11
2.667
 21
0.778
  0
ARC
  8
0
 10
2.755
 20
0.760
 40
0.090
 50
11.549
 51
-168.451
  0
LINE
  8
0
 10
2.667
 20
0.742
 11
2.977
 21
-0.778
  0
LINE
  8
0
 10
2.843
 20
0.778
 11
3.154
 21
-0.742
  0
ARC
  8
0
 10
3.065
 20
-0.760
 40
0.090
 50
-168.451
 51
11.549
  0
LINE
  8
0
 10
3.154
 20
-0.778
 11
3.376
 21
0.310
  0
LINE
  8
0
 10
3.065
 20
-0.310
 11
3.288
 21
0.778
  0
ARC
  8
0
 10
3.376
 20
0.760
 40
0.090
 50
11.549
 51
-168.451
  0
LINE
  8
0
 10
3.288
 20
0.742
 11
3.598
 21
-0.778
  0
LINE
  8
0
 10
3.464
 20
0.778
 11
3.775
 21
-0.742
  0
ARC
  8
0
 10
3.687
 20
-0.760
 40
0.090
 50
-168.451
 51
11.549
  0
LINE
  8
0
 10
3.775
 20
-0.778
 11
3.997
 21
0.310
  0
LINE
  8
0
 10
3.687
 20
-0.310
 11
3.909
 21
0.778
  0
ARC
  8
0
 10
3.997
 20
0.760
 40
0.090
 50
11.549
 51
-168.451
  0
LINE
  8
0
 10
3.909
 20
0.742
 11
4.220
 21
-0.778
  0
LINE
  8
0
 10
4.085
 20
0.778
 11
4.396
 21
-0.742
  0
ARC
  8
0
 10
4.308
 20
-0.760
 40
0.090
 50
-168.451
 51
11.549
  0
LINE
  8
0
 10
4.396
 20
-0.778
 11
4.618
 21
0.310
  0
LINE
  8
0
 10
4.308
 20
-0.310
 11
4.530
 21
0.778
  0
ARC
  8
0
 10
4.618
 20
0.760
 40
0.090
 50
11.549
 51
-168.451
  0
LINE
  8
0
 10
4.530
 20
0.742
 11
4.841
 21
-0.778
  0
LINE
  8
0
 10
4.707
 20
0.778
 11
5.017
 21
-0.742
  0
ARC
  8
0
 10
4.929
 20
-0.760
 40
0.090
 50
-168.451
 51
11.549
  0
LINE
  8
0
 10
5.017
 20
-0.778
 11
5.240
 21
0.310
  0
LINE
  8
0
 10
4.929
 20
-0.310
 11
5.151
 21
0.778
  0
ARC
  8
0
 10
5.240
 20
0.760
 40
0.090
 50
11.549
 51
-168.451
  0
LINE
  8
0
 10
5.151
 20
0.742
 11
5.462
 21
-0.778
  0
LINE
  8
0
 10
5.328
 20
0.778
 11
5.638
 21
-0.742
  0
ARC
  8
0
 10
5.550
 20
-0.760
 40
0.090
 50
-168.451
 51
11.549
  0
LINE
  8
0
 10
5.638
 20
-0.778
 11
5.861
 21
0.310
  0
LINE
  8
0
 10
5.550
 20
-0.310
 11
5.773
 21
0.778
  0
ARC
  8
0
 10
5.861
 20
0.760
 40
0.090
 50
11.549
 51
-168.451
  0
LINE
  8
0
 10
5.773
 20
0.742
 11
6.083
 21
-0.778
  0
LINE
  8
0
 10
5.949
 20
0.778
 11
6.260
 21
-0.742
  0
ARC
  8
0
 10
6.171
 20
-0.760
 40
0.090
 50
-168.451
 51
11.549
  0
LINE
  8
0
 10
6.260
 20
-0.778
 11
6.482
 21
0.310
  0
LINE
  8
0
 10
6.171
 20
-0.310
 11
6.394
 21
0.778
  0
ARC
  8
0
 10
6.482
 20
0.760
 40
0.090
 50
11.549
 51
-168.451
  0
LINE
  8
0
 10
6.394
 20
0.742
 11
6.704
 21
-0.778
  0
LINE
  8
0
 10
6.570
 20
0.778
 11
6.881
 21
-0.742
  0
ARC
  8
0
 10
6.793
 20
-0.760
 40
0.090
 50
-168.451
 51
11.549
  0
LINE
  8
0
 10
6.881
 20
-0.778
 11
7.103
 21
0.310
  0
LINE
  8
0
 10
6.793
 20
-0.310
 11
7.015
 21
0.778
  0
ARC
  8
0
 10
7.103
 20
0.760
 40
0.090
 50
11.549
 51
-168.451
  0
LINE
  8
0
 10
7.015
 20
0.742
 11
7.326
 21
-0.778
  0
LINE
  8
0
 10
7.191
 20
0.778
 11
7.502
 21
-0.742
  0
ARC
  8
0
 10
7.414
 20
-0.760
 40
0.090
 50
-168.451
 51
11.549
  0
LINE
  8
0
 10
7.414
 20
-0.310
 11
7.636
 21
0.778
  0
LINE
  8
0
 10
7.502
 20
-0.778
 11
7.701
 21
0.195
  0
ARC
  8
0
 10
7.724
 20
0.760
 40
0.090
 50
6.754
 51
-173.246
  0
LINE
  8
0
 10
7.635
 20
0.749
 11
7.815
 21
-0.771
  0
LINE
  8
0
 10
7.814
 20
0.771
 11
7.994
 21
-0.755
  0
ARC
  8
0
 10
7.904
 20
-0.760
 40
0.090
 50
-173.246
 51
0.000
  0
CIRCLE
  8
0
 10
7.904
 20
0.760
 40
0.090
  0
LINE
  8
0
 10
7.994
 20
0.760
 11
7.994
 21
-0.760
  0
ENDSEC
  0
EOF
