  0
SECTION
  2
ENTITIES
  0
ARC
  8
0
 10
0.090
 20
0.760
 40
0.090
 50
0.000
 51
180.000
  0
ARC
  8
0
 10
0.090
 20
-0.760
 40
0.090
 50
180.000
 51
0.000
  0
LINE
  8
0
 10
0.000
 20
0.760
 11
0.000
 21
-0.760
  0
LINE
  8
0
 10
0.180
 20
0.760
 11
0.180
 21
-0.760
  0
LINE
  8
0
 10
0.179
 20
-0.771
 11
0.294
 21
0.200
  0
ARC
  8
0
 10
0.270
 20
0.760
 40
0.090
 50
11.723
 51
-168.277
  0
LINE
  8
0
 10
0.182
 20
0.742
 11
0.497
 21
-0.778
  0
LINE
  8
0
 10
0.358
 20
0.778
 11
0.674
 21
-0.742
  0
ARC
  8
0
 10
0.585
 20
-0.760
 40
0.090
 50
-168.277
 51
11.723
  0
LINE
  8
0
 10
0.674
 20
-0.778
 11
0.901
 21
0.317
  0
LINE
  8
0
 10
0.585
 20
-0.317
 11
0.813
 21
0.778
  0
ARC
  8
0
 10
0.901
 20
0.760
 40
0.090
 50
11.723
 51
-168.277
  0
LINE
  8
0
 10
0.813
 20
0.742
 11
1.128
 21
-0.778
  0
LINE
  8
0
 10
0.989
 20
0.778
 11
1.304
 21
-0.742
  0
ARC
  8
0
 10
1.216
 20
-0.760
 40
0.090
 50
-168.277
 51
11.723
  0
LINE
  8
0
 10
1.304
 20
-0.778
 11
1.532
 21
0.317
  0
LINE
  8
0
 10
1.216
 20
-0.317
 11
1.444
 21
0.778
  0
ARC
  8
0
 10
1.532
 20
0.760
 40
0.090
 50
11.723
 51
-168.277
  0
LINE
  8
0
 10
1.444
 20
0.742
 11
1.759
 21
-0.778
  0
LINE
  8
0
 10
1.620
 20
0.778
 11
1.935
 21
-0.742
  0
ARC
  8
0
 10
1.847
 20
-0.760
 40
0.090
 50
-168.277
 51
11.723
  0
LINE
  8
0
 10
1.935
 20
-0.778
 11
2.163
 21
0.317
  0
LINE
  8
0
 10
1.847
 20
-0.317
 11
2.074
 21
0.778
  0
ARC
  8
0
 10
2.163
 20
0.760
 40
0.090
 50
11.723
 51
-168.277
  0
LINE
  8
0
 10
2.074
 20
0.742
 11
2.390
 21
-0.778
  0
LINE
  8
0
 10
2.251
 20
0.778
 11
2.566
 21
-0.742
  0
ARC
  8
0
 10
2.478
 20
-0.760
 40
0.090
 50
-168.277
 51
11.723
  0
LINE
  8
0
 10
2.566
 20
-0.778
 11
2.793
 21
0.317
  0
LINE
  8
0
 10
2.478
 20
-0.317
 11
2.705
 21
0.778
  0
ARC
  8
0
 10
2.793
 20
0.760
 40
0.090
 50
11.723
 51
-168.277
  0
LINE
  8
0
 10
2.705
 20
0.742
 11
3.021
 21
-0.778
  0
LINE
  8
0
 10
2.881
 20
0.778
 11
3.197
 21
-0.742
  0
ARC
  8
0
 10
3.109
 20
-0.760
 40
0.090
 50
-168.277
 51
11.723
  0
LINE
  8
0
 10
3.197
 20
-0.778
 11
3.424
 21
0.317
  0
LINE
  8
0
 10
3.109
 20
-0.317
 11
3.336
 21
0.778
  0
ARC
  8
0
 10
3.424
 20
0.760
 40
0.090
 50
11.723
 51
-168.277
  0
LINE
  8
0
 10
3.336
 20
0.742
 11
3.651
 21
-0.778
  0
LINE
  8
0
 10
3.512
 20
0.778
 11
3.828
 21
-0.742
  0
ARC
  8
0
 10
3.740
 20
-0.760
 40
0.090
 50
-168.277
 51
11.723
  0
LINE
  8
0
 10
3.828
 20
-0.778
 11
4.055
 21
0.317
  0
LINE
  8
0
 10
3.740
 20
-0.317
 11
3.967
 21
0.778
  0
ARC
  8
0
 10
4.055
 20
0.760
 40
0.090
 50
11.723
 51
-168.277
  0
LINE
  8
0
 10
3.967
 20
0.742
 11
4.282
 21
-0.778
  0
LINE
  8
0
 10
4.143
 20
0.778
 11
4.459
 21
-0.742
  0
ARC
  8
0
 10
4.370
 20
-0.760
 40
0.090
 50
-168.277
 51
11.723
  0
LINE
  8
0
 10
4.459
 20
-0.778
 11
4.686
 21
0.317
  0
LINE
  8
0
 10
4.370
 20
-0.317
 11
4.598
 21
0.778
  0
ARC
  8
0
 10
4.686
 20
0.760
 40
0.090
 50
11.723
 51
-168.277
  0
LINE
  8
0
 10
4.598
 20
0.742
 11
4.913
 21
-0.778
  0
LINE
  8
0
 10
4.774
 20
0.778
 11
5.089
 21
-0.742
  0
ARC
  8
0
 10
5.001
 20
-0.760
 40
0.090
 50
-168.277
 51
11.723
  0
LINE
  8
0
 10
5.089
 20
-0.778
 11
5.317
 21
0.317
  0
LINE
  8
0
 10
5.001
 20
-0.317
 11
5.229
 21
0.778
  0
ARC
  8
0
 10
5.317
 20
0.760
 40
0.090
 50
11.723
 51
-168.277
  0
LINE
  8
0
 10
5.229
 20
0.742
 11
5.544
 21
-0.778
  0
LINE
  8
0
 10
5.405
 20
0.778
 11
5.720
 21
-0.742
  0
ARC
  8
0
 10
5.632
 20
-0.760
 40
0.090
 50
-168.277
 51
11.723
  0
LINE
  8
0
 10
5.720
 20
-0.778
 11
5.948
 21
0.317
  0
LINE
  8
0
 10
5.632
 20
-0.317
 11
5.859
 21
0.778
  0
ARC
  8
0
 10
5.948
 20
0.760
 40
0.090
 50
11.723
 51
-168.277
  0
LINE
  8
0
 10
5.859
 20
0.742
 11
6.175
 21
-0.778
  0
LINE
  8
0
 10
6.036
 20
0.778
 11
6.351
 21
-0.742
  0
ARC
  8
0
 10
6.263
 20
-0.760
 40
0.090
 50
-168.277
 51
11.723
  0
LINE
  8
0
 10
6.351
 20
-0.778
 11
6.578
 21
0.317
  0
LINE
  8
0
 10
6.263
 20
-0.317
 11
6.490
 21
0.778
  0
ARC
  8
0
 10
6.578
 20
0.760
 40
0.090
 50
11.723
 51
-168.277
  0
LINE
  8
0
 10
6.490
 20
0.742
 11
6.806
 21
-0.778
  0
LINE
  8
0
 10
6.667
 20
0.778
 11
6.982
 21
-0.742
  0
ARC
  8
0
 10
6.894
 20
-0.760
 40
0.090
 50
-168.277
 51
11.723
  0
LINE
  8
0
 10
6.982
 20
-0.778
 11
7.209
 21
0.317
  0
LINE
  8
0
 10
6.894
 20
-0.317
 11
7.121
 21
0.778
  0
ARC
  8
0
 10
7.209
 20
0.760
 40
0.090
 50
11.723
 51
-168.277
  0
LINE
  8
0
 10
7.121
 20
0.742
 11
7.437
 21
-0.778
  0
LINE
  8
0
 10
7.297
 20
0.778
 11
7.613
 21
-0.742
  0
ARC
  8
0
 10
7.525
 20
-0.760
 40
0.090
 50
-168.277
 51
11.723
  0
LINE
  8
0
 10
7.613
 20
-0.778
 11
7.840
 21
0.317
  0
LINE
  8
0
 10
7.525
 20
-0.317
 11
7.752
 21
0.778
  0
ARC
  8
0
 10
7.840
 20
0.760
 40
0.090
 50
11.723
 51
-168.277
  0
LINE
  8
0
 10
7.752
 20
0.742
 11
8.067
 21
-0.778
  0
LINE
  8
0
 10
7.928
 20
0.778
 11
8.244
 21
-0.742
  0
ARC
  8
0
 10
8.155
 20
-0.760
 40
0.090
 50
-168.277
 51
11.723
  0
LINE
  8
0
 10
8.244
 20
-0.778
 11
8.471
 21
0.317
  0
LINE
  8
0
 10
8.155
 20
-0.317
 11
8.383
 21
0.778
  0
ARC
  8
0
 10
8.471
 20
0.760
 40
0.090
 50
11.723
 51
-168.277
  0
LINE
  8
0
 10
8.383
 20
0.742
 11
8.698
 21
-0.778
  0
LINE
  8
0
 10
8.559
 20
0.778
 11
8.874
 21
-0.742
  0
ARC
  8
0
 10
8.786
 20
-0.760
 40
0.090
 50
-168.277
 51
11.723
  0
LINE
  8
0
 10
8.874
 20
-0.778
 11
9.102
 21
0.317
  0
LINE
  8
0
 10
8.786
 20
-0.317
 11
9.014
 21
0.778
  0
ARC
  8
0
 10
9.102
 20
0.760
 40
0.090
 50
11.723
 51
-168.277
  0
LINE
  8
0
 10
9.014
 20
0.742
 11
9.329
 21
-0.778
  0
LINE
  8
0
 10
9.190
 20
0.778
 11
9.505
 21
-0.742
  0
ARC
  8
0
 10
9.417
 20
-0.760
 40
0.090
 50
-168.277
 51
11.723
  0
LINE
  8
0
 10
9.417
 20
-0.317
 11
9.644
 21
0.778
  0
LINE
  8
0
 10
9.505
 20
-0.778
 11
9.708
 21
0.200
  0
ARC
  8
0
 10
9.733
 20
0.760
 40
0.090
 50
6.754
 51
-173.246
  0
LINE
  8
0
 10
9.643
 20
0.749
 11
9.823
 21
-0.771
  0
LINE
  8
0
 10
9.822
 20
0.771
 11
10.003
 21
-0.755
  0
ARC
  8
0
 10
9.913
 20
-0.760
 40
0.090
 50
-173.246
 51
0.000
  0
CIRCLE
  8
0
 10
9.913
 20
0.760
 40
0.090
  0
LINE
  8
0
 10
10.003
 20
0.760
 11
10.003
 21
-0.760
  0
ENDSEC
  0
EOF
