  0
SECTION
  2
ENTITIES
  0
ARC
  8
0
 10
0.090
 20
0.760
 40
0.090
 50
0.000
 51
180.000
  0
ARC
  8
0
 10
0.090
 20
-0.760
 40
0.090
 50
180.000
 51
0.000
  0
LINE
  8
0
 10
0.000
 20
0.760
 11
0.000
 21
-0.760
  0
LINE
  8
0
 10
0.180
 20
0.760
 11
0.180
 21
-0.760
  0
LINE
  8
0
 10
0.179
 20
-0.771
 11
0.294
 21
0.193
  0
ARC
  8
0
 10
0.270
 20
0.760
 40
0.090
 50
11.506
 51
-168.494
  0
LINE
  8
0
 10
0.182
 20
0.742
 11
0.491
 21
-0.778
  0
LINE
  8
0
 10
0.358
 20
0.778
 11
0.668
 21
-0.742
  0
ARC
  8
0
 10
0.579
 20
-0.760
 40
0.090
 50
-168.494
 51
11.506
  0
LINE
  8
0
 10
0.668
 20
-0.778
 11
0.889
 21
0.309
  0
LINE
  8
0
 10
0.579
 20
-0.309
 11
0.801
 21
0.778
  0
ARC
  8
0
 10
0.889
 20
0.760
 40
0.090
 50
11.506
 51
-168.494
  0
LINE
  8
0
 10
0.801
 20
0.742
 11
1.110
 21
-0.778
  0
LINE
  8
0
 10
0.977
 20
0.778
 11
1.286
 21
-0.742
  0
ARC
  8
0
 10
1.198
 20
-0.760
 40
0.090
 50
-168.494
 51
11.506
  0
LINE
  8
0
 10
1.286
 20
-0.778
 11
1.508
 21
0.309
  0
LINE
  8
0
 10
1.198
 20
-0.309
 11
1.419
 21
0.778
  0
ARC
  8
0
 10
1.508
 20
0.760
 40
0.090
 50
11.506
 51
-168.494
  0
LINE
  8
0
 10
1.419
 20
0.742
 11
1.729
 21
-0.778
  0
LINE
  8
0
 10
1.596
 20
0.778
 11
1.905
 21
-0.742
  0
ARC
  8
0
 10
1.817
 20
-0.760
 40
0.090
 50
-168.494
 51
11.506
  0
LINE
  8
0
 10
1.905
 20
-0.778
 11
2.127
 21
0.309
  0
LINE
  8
0
 10
1.817
 20
-0.309
 11
2.038
 21
0.778
  0
ARC
  8
0
 10
2.127
 20
0.760
 40
0.090
 50
11.506
 51
-168.494
  0
LINE
  8
0
 10
2.038
 20
0.742
 11
2.348
 21
-0.778
  0
LINE
  8
0
 10
2.215
 20
0.778
 11
2.524
 21
-0.742
  0
ARC
  8
0
 10
2.436
 20
-0.760
 40
0.090
 50
-168.494
 51
11.506
  0
LINE
  8
0
 10
2.524
 20
-0.778
 11
2.745
 21
0.309
  0
LINE
  8
0
 10
2.436
 20
-0.309
 11
2.657
 21
0.778
  0
ARC
  8
0
 10
2.745
 20
0.760
 40
0.090
 50
11.506
 51
-168.494
  0
LINE
  8
0
 10
2.657
 20
0.742
 11
2.967
 21
-0.778
  0
LINE
  8
0
 10
2.834
 20
0.778
 11
3.143
 21
-0.742
  0
ARC
  8
0
 10
3.055
 20
-0.760
 40
0.090
 50
-168.494
 51
11.506
  0
LINE
  8
0
 10
3.143
 20
-0.778
 11
3.364
 21
0.309
  0
LINE
  8
0
 10
3.055
 20
-0.309
 11
3.276
 21
0.778
  0
ARC
  8
0
 10
3.364
 20
0.760
 40
0.090
 50
11.506
 51
-168.494
  0
LINE
  8
0
 10
3.276
 20
0.742
 11
3.585
 21
-0.778
  0
LINE
  8
0
 10
3.452
 20
0.778
 11
3.762
 21
-0.742
  0
ARC
  8
0
 10
3.674
 20
-0.760
 40
0.090
 50
-168.494
 51
11.506
  0
LINE
  8
0
 10
3.762
 20
-0.778
 11
3.983
 21
0.309
  0
LINE
  8
0
 10
3.674
 20
-0.309
 11
3.895
 21
0.778
  0
ARC
  8
0
 10
3.983
 20
0.760
 40
0.090
 50
11.506
 51
-168.494
  0
LINE
  8
0
 10
3.895
 20
0.742
 11
4.204
 21
-0.778
  0
LINE
  8
0
 10
4.071
 20
0.778
 11
4.381
 21
-0.742
  0
ARC
  8
0
 10
4.292
 20
-0.760
 40
0.090
 50
-168.494
 51
11.506
  0
LINE
  8
0
 10
4.381
 20
-0.778
 11
4.602
 21
0.309
  0
LINE
  8
0
 10
4.292
 20
-0.309
 11
4.514
 21
0.778
  0
ARC
  8
0
 10
4.602
 20
0.760
 40
0.090
 50
11.506
 51
-168.494
  0
LINE
  8
0
 10
4.514
 20
0.742
 11
4.823
 21
-0.778
  0
LINE
  8
0
 10
4.690
 20
0.778
 11
4.999
 21
-0.742
  0
ARC
  8
0
 10
4.911
 20
-0.760
 40
0.090
 50
-168.494
 51
11.506
  0
LINE
  8
0
 10
4.999
 20
-0.778
 11
5.221
 21
0.309
  0
LINE
  8
0
 10
4.911
 20
-0.309
 11
5.132
 21
0.778
  0
ARC
  8
0
 10
5.221
 20
0.760
 40
0.090
 50
11.506
 51
-168.494
  0
LINE
  8
0
 10
5.132
 20
0.742
 11
5.442
 21
-0.778
  0
LINE
  8
0
 10
5.309
 20
0.778
 11
5.618
 21
-0.742
  0
ARC
  8
0
 10
5.530
 20
-0.760
 40
0.090
 50
-168.494
 51
11.506
  0
LINE
  8
0
 10
5.618
 20
-0.778
 11
5.840
 21
0.309
  0
LINE
  8
0
 10
5.530
 20
-0.309
 11
5.751
 21
0.778
  0
ARC
  8
0
 10
5.840
 20
0.760
 40
0.090
 50
11.506
 51
-168.494
  0
LINE
  8
0
 10
5.751
 20
0.742
 11
6.061
 21
-0.778
  0
LINE
  8
0
 10
5.928
 20
0.778
 11
6.237
 21
-0.742
  0
ARC
  8
0
 10
6.149
 20
-0.760
 40
0.090
 50
-168.494
 51
11.506
  0
LINE
  8
0
 10
6.237
 20
-0.778
 11
6.458
 21
0.309
  0
LINE
  8
0
 10
6.149
 20
-0.309
 11
6.370
 21
0.778
  0
ARC
  8
0
 10
6.458
 20
0.760
 40
0.090
 50
11.506
 51
-168.494
  0
LINE
  8
0
 10
6.370
 20
0.742
 11
6.680
 21
-0.778
  0
LINE
  8
0
 10
6.547
 20
0.778
 11
6.856
 21
-0.742
  0
ARC
  8
0
 10
6.768
 20
-0.760
 40
0.090
 50
-168.494
 51
11.506
  0
LINE
  8
0
 10
6.856
 20
-0.778
 11
7.077
 21
0.309
  0
LINE
  8
0
 10
6.768
 20
-0.309
 11
6.989
 21
0.778
  0
ARC
  8
0
 10
7.077
 20
0.760
 40
0.090
 50
11.506
 51
-168.494
  0
LINE
  8
0
 10
6.989
 20
0.742
 11
7.298
 21
-0.778
  0
LINE
  8
0
 10
7.165
 20
0.778
 11
7.475
 21
-0.742
  0
ARC
  8
0
 10
7.387
 20
-0.760
 40
0.090
 50
-168.494
 51
11.506
  0
LINE
  8
0
 10
7.475
 20
-0.778
 11
7.696
 21
0.309
  0
LINE
  8
0
 10
7.387
 20
-0.309
 11
7.608
 21
0.778
  0
ARC
  8
0
 10
7.696
 20
0.760
 40
0.090
 50
11.506
 51
-168.494
  0
LINE
  8
0
 10
7.608
 20
0.742
 11
7.917
 21
-0.778
  0
LINE
  8
0
 10
7.784
 20
0.778
 11
8.094
 21
-0.742
  0
ARC
  8
0
 10
8.005
 20
-0.760
 40
0.090
 50
-168.494
 51
11.506
  0
LINE
  8
0
 10
8.094
 20
-0.778
 11
8.315
 21
0.309
  0
LINE
  8
0
 10
8.005
 20
-0.309
 11
8.227
 21
0.778
  0
ARC
  8
0
 10
8.315
 20
0.760
 40
0.090
 50
11.506
 51
-168.494
  0
LINE
  8
0
 10
8.227
 20
0.742
 11
8.536
 21
-0.778
  0
LINE
  8
0
 10
8.403
 20
0.778
 11
8.712
 21
-0.742
  0
ARC
  8
0
 10
8.624
 20
-0.760
 40
0.090
 50
-168.494
 51
11.506
  0
LINE
  8
0
 10
8.712
 20
-0.778
 11
8.934
 21
0.309
  0
LINE
  8
0
 10
8.624
 20
-0.309
 11
8.846
 21
0.778
  0
ARC
  8
0
 10
8.934
 20
0.760
 40
0.090
 50
11.506
 51
-168.494
  0
LINE
  8
0
 10
8.846
 20
0.742
 11
9.155
 21
-0.778
  0
LINE
  8
0
 10
9.022
 20
0.778
 11
9.331
 21
-0.742
  0
ARC
  8
0
 10
9.243
 20
-0.760
 40
0.090
 50
-168.494
 51
11.506
  0
LINE
  8
0
 10
9.331
 20
-0.778
 11
9.553
 21
0.309
  0
LINE
  8
0
 10
9.243
 20
-0.309
 11
9.464
 21
0.778
  0
ARC
  8
0
 10
9.553
 20
0.760
 40
0.090
 50
11.506
 51
-168.494
  0
LINE
  8
0
 10
9.464
 20
0.742
 11
9.774
 21
-0.778
  0
LINE
  8
0
 10
9.641
 20
0.778
 11
9.950
 21
-0.742
  0
ARC
  8
0
 10
9.862
 20
-0.760
 40
0.090
 50
-168.494
 51
11.506
  0
LINE
  8
0
 10
9.950
 20
-0.778
 11
10.171
 21
0.309
  0
LINE
  8
0
 10
9.862
 20
-0.309
 11
10.083
 21
0.778
  0
ARC
  8
0
 10
10.171
 20
0.760
 40
0.090
 50
11.506
 51
-168.494
  0
LINE
  8
0
 10
10.083
 20
0.742
 11
10.393
 21
-0.778
  0
LINE
  8
0
 10
10.260
 20
0.778
 11
10.569
 21
-0.742
  0
ARC
  8
0
 10
10.481
 20
-0.760
 40
0.090
 50
-168.494
 51
11.506
  0
LINE
  8
0
 10
10.569
 20
-0.778
 11
10.790
 21
0.309
  0
LINE
  8
0
 10
10.481
 20
-0.309
 11
10.702
 21
0.778
  0
ARC
  8
0
 10
10.790
 20
0.760
 40
0.090
 50
11.506
 51
-168.494
  0
LINE
  8
0
 10
10.702
 20
0.742
 11
11.011
 21
-0.778
  0
LINE
  8
0
 10
10.878
 20
0.778
 11
11.188
 21
-0.742
  0
ARC
  8
0
 10
11.100
 20
-0.760
 40
0.090
 50
-168.494
 51
11.506
  0
LINE
  8
0
 10
11.188
 20
-0.778
 11
11.409
 21
0.309
  0
LINE
  8
0
 10
11.100
 20
-0.309
 11
11.321
 21
0.778
  0
ARC
  8
0
 10
11.409
 20
0.760
 40
0.090
 50
11.506
 51
-168.494
  0
LINE
  8
0
 10
11.321
 20
0.742
 11
11.630
 21
-0.778
  0
LINE
  8
0
 10
11.497
 20
0.778
 11
11.807
 21
-0.742
  0
ARC
  8
0
 10
11.718
 20
-0.760
 40
0.090
 50
-168.494
 51
11.506
  0
LINE
  8
0
 10
11.695
 20
-0.193
 11
11.809
 21
0.771
  0
LINE
  8
0
 10
11.808
 20
0.760
 11
11.808
 21
-0.760
  0
LINE
  8
0
 10
11.988
 20
0.760
 11
11.988
 21
-0.760
  0
ARC
  8
0
 10
11.898
 20
-0.760
 40
0.090
 50
180.000
 51
0.000
  0
ARC
  8
0
 10
11.898
 20
0.760
 40
0.090
 50
0.000
 51
180.000
  0
ENDSEC
  0
EOF
