  0
SECTION
  2
ENTITIES
  0
ARC
  8
0
 10
0.100
 20
0.750
 40
0.100
 50
0.000
 51
180.000
  0
ARC
  8
0
 10
0.100
 20
-0.750
 40
0.100
 50
180.000
 51
0.000
  0
LINE
  8
0
 10
0.000
 20
0.750
 11
0.000
 21
-0.750
  0
LINE
  8
0
 10
0.200
 20
0.750
 11
0.200
 21
-0.750
  0
LINE
  8
0
 10
0.199
 20
-0.763
 11
0.319
 21
0.133
  0
ARC
  8
0
 10
0.300
 20
0.750
 40
0.100
 50
11.059
 51
-168.941
  0
LINE
  8
0
 10
0.202
 20
0.731
 11
0.495
 21
-0.769
  0
LINE
  8
0
 10
0.398
 20
0.769
 11
0.691
 21
-0.731
  0
ARC
  8
0
 10
0.593
 20
-0.750
 40
0.100
 50
-168.941
 51
11.059
  0
LINE
  8
0
 10
0.691
 20
-0.769
 11
0.886
 21
0.229
  0
LINE
  8
0
 10
0.593
 20
-0.229
 11
0.788
 21
0.769
  0
ARC
  8
0
 10
0.886
 20
0.750
 40
0.100
 50
11.059
 51
-168.941
  0
LINE
  8
0
 10
0.788
 20
0.731
 11
1.081
 21
-0.769
  0
LINE
  8
0
 10
0.984
 20
0.769
 11
1.278
 21
-0.731
  0
ARC
  8
0
 10
1.179
 20
-0.750
 40
0.100
 50
-168.941
 51
11.059
  0
LINE
  8
0
 10
1.278
 20
-0.769
 11
1.473
 21
0.229
  0
LINE
  8
0
 10
1.179
 20
-0.229
 11
1.375
 21
0.769
  0
ARC
  8
0
 10
1.473
 20
0.750
 40
0.100
 50
11.059
 51
-168.941
  0
LINE
  8
0
 10
1.375
 20
0.731
 11
1.668
 21
-0.769
  0
LINE
  8
0
 10
1.571
 20
0.769
 11
1.864
 21
-0.731
  0
ARC
  8
0
 10
1.766
 20
-0.750
 40
0.100
 50
-168.941
 51
11.059
  0
LINE
  8
0
 10
1.864
 20
-0.769
 11
2.059
 21
0.229
  0
LINE
  8
0
 10
1.766
 20
-0.229
 11
1.961
 21
0.769
  0
ARC
  8
0
 10
2.059
 20
0.750
 40
0.100
 50
11.059
 51
-168.941
  0
LINE
  8
0
 10
1.961
 20
0.731
 11
2.254
 21
-0.769
  0
LINE
  8
0
 10
2.157
 20
0.769
 11
2.450
 21
-0.731
  0
ARC
  8
0
 10
2.352
 20
-0.750
 40
0.100
 50
-168.941
 51
11.059
  0
LINE
  8
0
 10
2.450
 20
-0.769
 11
2.645
 21
0.229
  0
LINE
  8
0
 10
2.352
 20
-0.229
 11
2.547
 21
0.769
  0
ARC
  8
0
 10
2.645
 20
0.750
 40
0.100
 50
11.059
 51
-168.941
  0
LINE
  8
0
 10
2.547
 20
0.731
 11
2.840
 21
-0.769
  0
LINE
  8
0
 10
2.743
 20
0.769
 11
3.037
 21
-0.731
  0
ARC
  8
0
 10
2.938
 20
-0.750
 40
0.100
 50
-168.941
 51
11.059
  0
LINE
  8
0
 10
3.037
 20
-0.769
 11
3.232
 21
0.229
  0
LINE
  8
0
 10
2.938
 20
-0.229
 11
3.133
 21
0.769
  0
ARC
  8
0
 10
3.232
 20
0.750
 40
0.100
 50
11.059
 51
-168.941
  0
LINE
  8
0
 10
3.133
 20
0.731
 11
3.427
 21
-0.769
  0
LINE
  8
0
 10
3.330
 20
0.769
 11
3.623
 21
-0.731
  0
ARC
  8
0
 10
3.525
 20
-0.750
 40
0.100
 50
-168.941
 51
11.059
  0
LINE
  8
0
 10
3.623
 20
-0.769
 11
3.818
 21
0.229
  0
LINE
  8
0
 10
3.525
 20
-0.229
 11
3.720
 21
0.769
  0
ARC
  8
0
 10
3.818
 20
0.750
 40
0.100
 50
11.059
 51
-168.941
  0
LINE
  8
0
 10
3.720
 20
0.731
 11
4.013
 21
-0.769
  0
LINE
  8
0
 10
3.916
 20
0.769
 11
4.209
 21
-0.731
  0
ARC
  8
0
 10
4.111
 20
-0.750
 40
0.100
 50
-168.941
 51
11.059
  0
LINE
  8
0
 10
4.209
 20
-0.769
 11
4.404
 21
0.229
  0
LINE
  8
0
 10
4.111
 20
-0.229
 11
4.306
 21
0.769
  0
ARC
  8
0
 10
4.404
 20
0.750
 40
0.100
 50
11.059
 51
-168.941
  0
LINE
  8
0
 10
4.306
 20
0.731
 11
4.599
 21
-0.769
  0
LINE
  8
0
 10
4.502
 20
0.769
 11
4.796
 21
-0.731
  0
ARC
  8
0
 10
4.697
 20
-0.750
 40
0.100
 50
-168.941
 51
11.059
  0
LINE
  8
0
 10
4.679
 20
-0.133
 11
4.798
 21
0.763
  0
LINE
  8
0
 10
4.797
 20
0.750
 11
4.797
 21
-0.750
  0
LINE
  8
0
 10
4.997
 20
0.750
 11
4.997
 21
-0.750
  0
ARC
  8
0
 10
4.897
 20
-0.750
 40
0.100
 50
180.000
 51
0.000
  0
ARC
  8
0
 10
4.897
 20
0.750
 40
0.100
 50
0.000
 51
180.000
  0
ENDSEC
  0
EOF
