  0
SECTION
  2
ENTITIES
  0
ARC
  8
0
 10
0.100
 20
0.750
 40
0.100
 50
0.000
 51
180.000
  0
ARC
  8
0
 10
0.100
 20
-0.750
 40
0.100
 50
180.000
 51
0.000
  0
LINE
  8
0
 10
0.000
 20
0.750
 11
0.000
 21
-0.750
  0
LINE
  8
0
 10
0.200
 20
0.750
 11
0.200
 21
-0.750
  0
LINE
  8
0
 10
0.199
 20
-0.763
 11
0.317
 21
0.122
  0
ARC
  8
0
 10
0.300
 20
0.750
 40
0.100
 50
10.736
 51
-169.264
  0
LINE
  8
0
 10
0.202
 20
0.731
 11
0.486
 21
-0.769
  0
LINE
  8
0
 10
0.398
 20
0.769
 11
0.683
 21
-0.731
  0
ARC
  8
0
 10
0.584
 20
-0.750
 40
0.100
 50
-169.264
 51
10.736
  0
LINE
  8
0
 10
0.683
 20
-0.769
 11
0.869
 21
0.213
  0
LINE
  8
0
 10
0.584
 20
-0.213
 11
0.771
 21
0.769
  0
ARC
  8
0
 10
0.869
 20
0.750
 40
0.100
 50
10.736
 51
-169.264
  0
LINE
  8
0
 10
0.771
 20
0.731
 11
1.055
 21
-0.769
  0
LINE
  8
0
 10
0.967
 20
0.769
 11
1.251
 21
-0.731
  0
ARC
  8
0
 10
1.153
 20
-0.750
 40
0.100
 50
-169.264
 51
10.736
  0
LINE
  8
0
 10
1.251
 20
-0.769
 11
1.438
 21
0.213
  0
LINE
  8
0
 10
1.153
 20
-0.213
 11
1.339
 21
0.769
  0
ARC
  8
0
 10
1.438
 20
0.750
 40
0.100
 50
10.736
 51
-169.264
  0
LINE
  8
0
 10
1.339
 20
0.731
 11
1.624
 21
-0.769
  0
LINE
  8
0
 10
1.536
 20
0.769
 11
1.820
 21
-0.731
  0
ARC
  8
0
 10
1.722
 20
-0.750
 40
0.100
 50
-169.264
 51
10.736
  0
LINE
  8
0
 10
1.820
 20
-0.769
 11
2.006
 21
0.213
  0
LINE
  8
0
 10
1.722
 20
-0.213
 11
1.908
 21
0.769
  0
ARC
  8
0
 10
2.006
 20
0.750
 40
0.100
 50
10.736
 51
-169.264
  0
LINE
  8
0
 10
1.908
 20
0.731
 11
2.193
 21
-0.769
  0
LINE
  8
0
 10
2.105
 20
0.769
 11
2.389
 21
-0.731
  0
ARC
  8
0
 10
2.291
 20
-0.750
 40
0.100
 50
-169.264
 51
10.736
  0
LINE
  8
0
 10
2.389
 20
-0.769
 11
2.575
 21
0.213
  0
LINE
  8
0
 10
2.291
 20
-0.213
 11
2.477
 21
0.769
  0
ARC
  8
0
 10
2.575
 20
0.750
 40
0.100
 50
10.736
 51
-169.264
  0
LINE
  8
0
 10
2.477
 20
0.731
 11
2.761
 21
-0.769
  0
LINE
  8
0
 10
2.673
 20
0.769
 11
2.958
 21
-0.731
  0
ARC
  8
0
 10
2.860
 20
-0.750
 40
0.100
 50
-169.264
 51
10.736
  0
LINE
  8
0
 10
2.958
 20
-0.769
 11
3.144
 21
0.213
  0
LINE
  8
0
 10
2.860
 20
-0.213
 11
3.046
 21
0.769
  0
ARC
  8
0
 10
3.144
 20
0.750
 40
0.100
 50
10.736
 51
-169.264
  0
LINE
  8
0
 10
3.046
 20
0.731
 11
3.330
 21
-0.769
  0
LINE
  8
0
 10
3.242
 20
0.769
 11
3.527
 21
-0.731
  0
ARC
  8
0
 10
3.428
 20
-0.750
 40
0.100
 50
-169.264
 51
10.736
  0
LINE
  8
0
 10
3.527
 20
-0.769
 11
3.713
 21
0.213
  0
LINE
  8
0
 10
3.428
 20
-0.213
 11
3.615
 21
0.769
  0
ARC
  8
0
 10
3.713
 20
0.750
 40
0.100
 50
10.736
 51
-169.264
  0
LINE
  8
0
 10
3.615
 20
0.731
 11
3.899
 21
-0.769
  0
LINE
  8
0
 10
3.811
 20
0.769
 11
4.096
 21
-0.731
  0
ARC
  8
0
 10
3.997
 20
-0.750
 40
0.100
 50
-169.264
 51
10.736
  0
LINE
  8
0
 10
4.096
 20
-0.769
 11
4.282
 21
0.213
  0
LINE
  8
0
 10
3.997
 20
-0.213
 11
4.183
 21
0.769
  0
ARC
  8
0
 10
4.282
 20
0.750
 40
0.100
 50
10.736
 51
-169.264
  0
LINE
  8
0
 10
4.183
 20
0.731
 11
4.468
 21
-0.769
  0
LINE
  8
0
 10
4.380
 20
0.769
 11
4.664
 21
-0.731
  0
ARC
  8
0
 10
4.566
 20
-0.750
 40
0.100
 50
-169.264
 51
10.736
  0
LINE
  8
0
 10
4.664
 20
-0.769
 11
4.850
 21
0.213
  0
LINE
  8
0
 10
4.566
 20
-0.213
 11
4.752
 21
0.769
  0
ARC
  8
0
 10
4.850
 20
0.750
 40
0.100
 50
10.736
 51
-169.264
  0
LINE
  8
0
 10
4.752
 20
0.731
 11
5.037
 21
-0.769
  0
LINE
  8
0
 10
4.949
 20
0.769
 11
5.233
 21
-0.731
  0
ARC
  8
0
 10
5.135
 20
-0.750
 40
0.100
 50
-169.264
 51
10.736
  0
LINE
  8
0
 10
5.233
 20
-0.769
 11
5.419
 21
0.213
  0
LINE
  8
0
 10
5.135
 20
-0.213
 11
5.321
 21
0.769
  0
ARC
  8
0
 10
5.419
 20
0.750
 40
0.100
 50
10.736
 51
-169.264
  0
LINE
  8
0
 10
5.321
 20
0.731
 11
5.605
 21
-0.769
  0
LINE
  8
0
 10
5.518
 20
0.769
 11
5.802
 21
-0.731
  0
ARC
  8
0
 10
5.704
 20
-0.750
 40
0.100
 50
-169.264
 51
10.736
  0
LINE
  8
0
 10
5.802
 20
-0.769
 11
5.988
 21
0.213
  0
LINE
  8
0
 10
5.704
 20
-0.213
 11
5.890
 21
0.769
  0
ARC
  8
0
 10
5.988
 20
0.750
 40
0.100
 50
10.736
 51
-169.264
  0
LINE
  8
0
 10
5.890
 20
0.731
 11
6.174
 21
-0.769
  0
LINE
  8
0
 10
6.086
 20
0.769
 11
6.371
 21
-0.731
  0
ARC
  8
0
 10
6.273
 20
-0.750
 40
0.100
 50
-169.264
 51
10.736
  0
LINE
  8
0
 10
6.371
 20
-0.769
 11
6.557
 21
0.213
  0
LINE
  8
0
 10
6.273
 20
-0.213
 11
6.459
 21
0.769
  0
ARC
  8
0
 10
6.557
 20
0.750
 40
0.100
 50
10.736
 51
-169.264
  0
LINE
  8
0
 10
6.459
 20
0.731
 11
6.743
 21
-0.769
  0
LINE
  8
0
 10
6.655
 20
0.769
 11
6.940
 21
-0.731
  0
ARC
  8
0
 10
6.841
 20
-0.750
 40
0.100
 50
-169.264
 51
10.736
  0
LINE
  8
0
 10
6.940
 20
-0.769
 11
7.126
 21
0.213
  0
LINE
  8
0
 10
6.841
 20
-0.213
 11
7.027
 21
0.769
  0
ARC
  8
0
 10
7.126
 20
0.750
 40
0.100
 50
10.736
 51
-169.264
  0
LINE
  8
0
 10
7.027
 20
0.731
 11
7.312
 21
-0.769
  0
LINE
  8
0
 10
7.224
 20
0.769
 11
7.508
 21
-0.731
  0
ARC
  8
0
 10
7.410
 20
-0.750
 40
0.100
 50
-169.264
 51
10.736
  0
LINE
  8
0
 10
7.410
 20
-0.213
 11
7.596
 21
0.769
  0
LINE
  8
0
 10
7.508
 20
-0.769
 11
7.677
 21
0.122
  0
ARC
  8
0
 10
7.695
 20
0.750
 40
0.100
 50
7.595
 51
-172.405
  0
LINE
  8
0
 10
7.595
 20
0.737
 11
7.795
 21
-0.763
  0
LINE
  8
0
 10
7.794
 20
0.763
 11
7.995
 21
-0.743
  0
ARC
  8
0
 10
7.895
 20
-0.750
 40
0.100
 50
-172.405
 51
0.000
  0
CIRCLE
  8
0
 10
7.895
 20
0.750
 40
0.100
  0
LINE
  8
0
 10
7.995
 20
0.750
 11
7.995
 21
-0.750
  0
ENDSEC
  0
EOF
