  0
SECTION
  2
ENTITIES
  0
ARC
  8
0
 10
0.100
 20
0.750
 40
0.100
 50
0.000
 51
180.000
  0
ARC
  8
0
 10
0.100
 20
-0.750
 40
0.100
 50
180.000
 51
0.000
  0
LINE
  8
0
 10
0.000
 20
0.750
 11
0.000
 21
-0.750
  0
LINE
  8
0
 10
0.200
 20
0.750
 11
0.200
 21
-0.750
  0
LINE
  8
0
 10
0.199
 20
-0.763
 11
0.319
 21
0.134
  0
ARC
  8
0
 10
0.300
 20
0.750
 40
0.100
 50
11.079
 51
-168.921
  0
LINE
  8
0
 10
0.202
 20
0.731
 11
0.496
 21
-0.769
  0
LINE
  8
0
 10
0.398
 20
0.769
 11
0.692
 21
-0.731
  0
ARC
  8
0
 10
0.594
 20
-0.750
 40
0.100
 50
-168.921
 51
11.079
  0
LINE
  8
0
 10
0.692
 20
-0.769
 11
0.887
 21
0.230
  0
LINE
  8
0
 10
0.594
 20
-0.230
 11
0.789
 21
0.769
  0
ARC
  8
0
 10
0.887
 20
0.750
 40
0.100
 50
11.079
 51
-168.921
  0
LINE
  8
0
 10
0.789
 20
0.731
 11
1.083
 21
-0.769
  0
LINE
  8
0
 10
0.986
 20
0.769
 11
1.279
 21
-0.731
  0
ARC
  8
0
 10
1.181
 20
-0.750
 40
0.100
 50
-168.921
 51
11.079
  0
LINE
  8
0
 10
1.279
 20
-0.769
 11
1.475
 21
0.230
  0
LINE
  8
0
 10
1.181
 20
-0.230
 11
1.377
 21
0.769
  0
ARC
  8
0
 10
1.475
 20
0.750
 40
0.100
 50
11.079
 51
-168.921
  0
LINE
  8
0
 10
1.377
 20
0.731
 11
1.670
 21
-0.769
  0
LINE
  8
0
 10
1.573
 20
0.769
 11
1.867
 21
-0.731
  0
ARC
  8
0
 10
1.769
 20
-0.750
 40
0.100
 50
-168.921
 51
11.079
  0
LINE
  8
0
 10
1.867
 20
-0.769
 11
2.062
 21
0.230
  0
LINE
  8
0
 10
1.769
 20
-0.230
 11
1.964
 21
0.769
  0
ARC
  8
0
 10
2.062
 20
0.750
 40
0.100
 50
11.079
 51
-168.921
  0
LINE
  8
0
 10
1.964
 20
0.731
 11
2.258
 21
-0.769
  0
LINE
  8
0
 10
2.160
 20
0.769
 11
2.454
 21
-0.731
  0
ARC
  8
0
 10
2.356
 20
-0.750
 40
0.100
 50
-168.921
 51
11.079
  0
LINE
  8
0
 10
2.454
 20
-0.769
 11
2.650
 21
0.230
  0
LINE
  8
0
 10
2.356
 20
-0.230
 11
2.552
 21
0.769
  0
ARC
  8
0
 10
2.650
 20
0.750
 40
0.100
 50
11.079
 51
-168.921
  0
LINE
  8
0
 10
2.552
 20
0.731
 11
2.845
 21
-0.769
  0
LINE
  8
0
 10
2.748
 20
0.769
 11
3.042
 21
-0.731
  0
ARC
  8
0
 10
2.943
 20
-0.750
 40
0.100
 50
-168.921
 51
11.079
  0
LINE
  8
0
 10
3.042
 20
-0.769
 11
3.237
 21
0.230
  0
LINE
  8
0
 10
2.943
 20
-0.230
 11
3.139
 21
0.769
  0
ARC
  8
0
 10
3.237
 20
0.750
 40
0.100
 50
11.079
 51
-168.921
  0
LINE
  8
0
 10
3.139
 20
0.731
 11
3.433
 21
-0.769
  0
LINE
  8
0
 10
3.335
 20
0.769
 11
3.629
 21
-0.731
  0
ARC
  8
0
 10
3.531
 20
-0.750
 40
0.100
 50
-168.921
 51
11.079
  0
LINE
  8
0
 10
3.629
 20
-0.769
 11
3.825
 21
0.230
  0
LINE
  8
0
 10
3.531
 20
-0.230
 11
3.726
 21
0.769
  0
ARC
  8
0
 10
3.825
 20
0.750
 40
0.100
 50
11.079
 51
-168.921
  0
LINE
  8
0
 10
3.726
 20
0.731
 11
4.020
 21
-0.769
  0
LINE
  8
0
 10
3.923
 20
0.769
 11
4.216
 21
-0.731
  0
ARC
  8
0
 10
4.118
 20
-0.750
 40
0.100
 50
-168.921
 51
11.079
  0
LINE
  8
0
 10
4.216
 20
-0.769
 11
4.412
 21
0.230
  0
LINE
  8
0
 10
4.118
 20
-0.230
 11
4.314
 21
0.769
  0
ARC
  8
0
 10
4.412
 20
0.750
 40
0.100
 50
11.079
 51
-168.921
  0
LINE
  8
0
 10
4.314
 20
0.731
 11
4.608
 21
-0.769
  0
LINE
  8
0
 10
4.510
 20
0.769
 11
4.804
 21
-0.731
  0
ARC
  8
0
 10
4.706
 20
-0.750
 40
0.100
 50
-168.921
 51
11.079
  0
LINE
  8
0
 10
4.804
 20
-0.769
 11
4.999
 21
0.230
  0
LINE
  8
0
 10
4.706
 20
-0.230
 11
4.901
 21
0.769
  0
ARC
  8
0
 10
4.999
 20
0.750
 40
0.100
 50
11.079
 51
-168.921
  0
LINE
  8
0
 10
4.901
 20
0.731
 11
5.195
 21
-0.769
  0
LINE
  8
0
 10
5.097
 20
0.769
 11
5.391
 21
-0.731
  0
ARC
  8
0
 10
5.293
 20
-0.750
 40
0.100
 50
-168.921
 51
11.079
  0
LINE
  8
0
 10
5.391
 20
-0.769
 11
5.587
 21
0.230
  0
LINE
  8
0
 10
5.293
 20
-0.230
 11
5.489
 21
0.769
  0
ARC
  8
0
 10
5.587
 20
0.750
 40
0.100
 50
11.079
 51
-168.921
  0
LINE
  8
0
 10
5.489
 20
0.731
 11
5.782
 21
-0.769
  0
LINE
  8
0
 10
5.685
 20
0.769
 11
5.979
 21
-0.731
  0
ARC
  8
0
 10
5.880
 20
-0.750
 40
0.100
 50
-168.921
 51
11.079
  0
LINE
  8
0
 10
5.979
 20
-0.769
 11
6.174
 21
0.230
  0
LINE
  8
0
 10
5.880
 20
-0.230
 11
6.076
 21
0.769
  0
ARC
  8
0
 10
6.174
 20
0.750
 40
0.100
 50
11.079
 51
-168.921
  0
LINE
  8
0
 10
6.076
 20
0.731
 11
6.370
 21
-0.769
  0
LINE
  8
0
 10
6.272
 20
0.769
 11
6.566
 21
-0.731
  0
ARC
  8
0
 10
6.468
 20
-0.750
 40
0.100
 50
-168.921
 51
11.079
  0
LINE
  8
0
 10
6.566
 20
-0.769
 11
6.762
 21
0.230
  0
LINE
  8
0
 10
6.468
 20
-0.230
 11
6.663
 21
0.769
  0
ARC
  8
0
 10
6.762
 20
0.750
 40
0.100
 50
11.079
 51
-168.921
  0
LINE
  8
0
 10
6.663
 20
0.731
 11
6.957
 21
-0.769
  0
LINE
  8
0
 10
6.860
 20
0.769
 11
7.153
 21
-0.731
  0
ARC
  8
0
 10
7.055
 20
-0.750
 40
0.100
 50
-168.921
 51
11.079
  0
LINE
  8
0
 10
7.153
 20
-0.769
 11
7.349
 21
0.230
  0
LINE
  8
0
 10
7.055
 20
-0.230
 11
7.251
 21
0.769
  0
ARC
  8
0
 10
7.349
 20
0.750
 40
0.100
 50
11.079
 51
-168.921
  0
LINE
  8
0
 10
7.251
 20
0.731
 11
7.545
 21
-0.769
  0
LINE
  8
0
 10
7.447
 20
0.769
 11
7.741
 21
-0.731
  0
ARC
  8
0
 10
7.643
 20
-0.750
 40
0.100
 50
-168.921
 51
11.079
  0
LINE
  8
0
 10
7.741
 20
-0.769
 11
7.936
 21
0.230
  0
LINE
  8
0
 10
7.643
 20
-0.230
 11
7.838
 21
0.769
  0
ARC
  8
0
 10
7.936
 20
0.750
 40
0.100
 50
11.079
 51
-168.921
  0
LINE
  8
0
 10
7.838
 20
0.731
 11
8.132
 21
-0.769
  0
LINE
  8
0
 10
8.035
 20
0.769
 11
8.328
 21
-0.731
  0
ARC
  8
0
 10
8.230
 20
-0.750
 40
0.100
 50
-168.921
 51
11.079
  0
LINE
  8
0
 10
8.328
 20
-0.769
 11
8.524
 21
0.230
  0
LINE
  8
0
 10
8.230
 20
-0.230
 11
8.426
 21
0.769
  0
ARC
  8
0
 10
8.524
 20
0.750
 40
0.100
 50
11.079
 51
-168.921
  0
LINE
  8
0
 10
8.426
 20
0.731
 11
8.719
 21
-0.769
  0
LINE
  8
0
 10
8.622
 20
0.769
 11
8.916
 21
-0.731
  0
ARC
  8
0
 10
8.818
 20
-0.750
 40
0.100
 50
-168.921
 51
11.079
  0
LINE
  8
0
 10
8.916
 20
-0.769
 11
9.111
 21
0.230
  0
LINE
  8
0
 10
8.818
 20
-0.230
 11
9.013
 21
0.769
  0
ARC
  8
0
 10
9.111
 20
0.750
 40
0.100
 50
11.079
 51
-168.921
  0
LINE
  8
0
 10
9.013
 20
0.731
 11
9.307
 21
-0.769
  0
LINE
  8
0
 10
9.209
 20
0.769
 11
9.503
 21
-0.731
  0
ARC
  8
0
 10
9.405
 20
-0.750
 40
0.100
 50
-168.921
 51
11.079
  0
LINE
  8
0
 10
9.405
 20
-0.230
 11
9.601
 21
0.769
  0
LINE
  8
0
 10
9.503
 20
-0.769
 11
9.680
 21
0.134
  0
ARC
  8
0
 10
9.699
 20
0.750
 40
0.100
 50
7.595
 51
-172.405
  0
LINE
  8
0
 10
9.600
 20
0.737
 11
9.800
 21
-0.763
  0
LINE
  8
0
 10
9.798
 20
0.763
 11
9.999
 21
-0.743
  0
ARC
  8
0
 10
9.899
 20
-0.750
 40
0.100
 50
-172.405
 51
0.000
  0
CIRCLE
  8
0
 10
9.899
 20
0.750
 40
0.100
  0
LINE
  8
0
 10
9.999
 20
0.750
 11
9.999
 21
-0.750
  0
ENDSEC
  0
EOF
