  0
SECTION
  2
ENTITIES
  0
ARC
  8
0
 10
0.100
 20
0.750
 40
0.100
 50
0.000
 51
180.000
  0
ARC
  8
0
 10
0.100
 20
-0.750
 40
0.100
 50
180.000
 51
0.000
  0
LINE
  8
0
 10
0.000
 20
0.750
 11
0.000
 21
-0.750
  0
LINE
  8
0
 10
0.200
 20
0.750
 11
0.200
 21
-0.750
  0
LINE
  8
0
 10
0.199
 20
-0.763
 11
0.318
 21
0.132
  0
ARC
  8
0
 10
0.300
 20
0.750
 40
0.100
 50
11.019
 51
-168.981
  0
LINE
  8
0
 10
0.202
 20
0.731
 11
0.494
 21
-0.769
  0
LINE
  8
0
 10
0.398
 20
0.769
 11
0.690
 21
-0.731
  0
ARC
  8
0
 10
0.592
 20
-0.750
 40
0.100
 50
-168.981
 51
11.019
  0
LINE
  8
0
 10
0.690
 20
-0.769
 11
0.884
 21
0.227
  0
LINE
  8
0
 10
0.592
 20
-0.227
 11
0.786
 21
0.769
  0
ARC
  8
0
 10
0.884
 20
0.750
 40
0.100
 50
11.019
 51
-168.981
  0
LINE
  8
0
 10
0.786
 20
0.731
 11
1.078
 21
-0.769
  0
LINE
  8
0
 10
0.982
 20
0.769
 11
1.274
 21
-0.731
  0
ARC
  8
0
 10
1.176
 20
-0.750
 40
0.100
 50
-168.981
 51
11.019
  0
LINE
  8
0
 10
1.274
 20
-0.769
 11
1.468
 21
0.227
  0
LINE
  8
0
 10
1.176
 20
-0.227
 11
1.370
 21
0.769
  0
ARC
  8
0
 10
1.468
 20
0.750
 40
0.100
 50
11.019
 51
-168.981
  0
LINE
  8
0
 10
1.370
 20
0.731
 11
1.662
 21
-0.769
  0
LINE
  8
0
 10
1.567
 20
0.769
 11
1.859
 21
-0.731
  0
ARC
  8
0
 10
1.760
 20
-0.750
 40
0.100
 50
-168.981
 51
11.019
  0
LINE
  8
0
 10
1.859
 20
-0.769
 11
2.053
 21
0.227
  0
LINE
  8
0
 10
1.760
 20
-0.227
 11
1.954
 21
0.769
  0
ARC
  8
0
 10
2.053
 20
0.750
 40
0.100
 50
11.019
 51
-168.981
  0
LINE
  8
0
 10
1.954
 20
0.731
 11
2.247
 21
-0.769
  0
LINE
  8
0
 10
2.151
 20
0.769
 11
2.443
 21
-0.731
  0
ARC
  8
0
 10
2.345
 20
-0.750
 40
0.100
 50
-168.981
 51
11.019
  0
LINE
  8
0
 10
2.443
 20
-0.769
 11
2.637
 21
0.227
  0
LINE
  8
0
 10
2.345
 20
-0.227
 11
2.539
 21
0.769
  0
ARC
  8
0
 10
2.637
 20
0.750
 40
0.100
 50
11.019
 51
-168.981
  0
LINE
  8
0
 10
2.539
 20
0.731
 11
2.831
 21
-0.769
  0
LINE
  8
0
 10
2.735
 20
0.769
 11
3.027
 21
-0.731
  0
ARC
  8
0
 10
2.929
 20
-0.750
 40
0.100
 50
-168.981
 51
11.019
  0
LINE
  8
0
 10
3.027
 20
-0.769
 11
3.221
 21
0.227
  0
LINE
  8
0
 10
2.929
 20
-0.227
 11
3.123
 21
0.769
  0
ARC
  8
0
 10
3.221
 20
0.750
 40
0.100
 50
11.019
 51
-168.981
  0
LINE
  8
0
 10
3.123
 20
0.731
 11
3.415
 21
-0.769
  0
LINE
  8
0
 10
3.319
 20
0.769
 11
3.611
 21
-0.731
  0
ARC
  8
0
 10
3.513
 20
-0.750
 40
0.100
 50
-168.981
 51
11.019
  0
LINE
  8
0
 10
3.611
 20
-0.769
 11
3.805
 21
0.227
  0
LINE
  8
0
 10
3.513
 20
-0.227
 11
3.707
 21
0.769
  0
ARC
  8
0
 10
3.805
 20
0.750
 40
0.100
 50
11.019
 51
-168.981
  0
LINE
  8
0
 10
3.707
 20
0.731
 11
3.999
 21
-0.769
  0
LINE
  8
0
 10
3.903
 20
0.769
 11
4.195
 21
-0.731
  0
ARC
  8
0
 10
4.097
 20
-0.750
 40
0.100
 50
-168.981
 51
11.019
  0
LINE
  8
0
 10
4.195
 20
-0.769
 11
4.389
 21
0.227
  0
LINE
  8
0
 10
4.097
 20
-0.227
 11
4.291
 21
0.769
  0
ARC
  8
0
 10
4.389
 20
0.750
 40
0.100
 50
11.019
 51
-168.981
  0
LINE
  8
0
 10
4.291
 20
0.731
 11
4.583
 21
-0.769
  0
LINE
  8
0
 10
4.487
 20
0.769
 11
4.780
 21
-0.731
  0
ARC
  8
0
 10
4.681
 20
-0.750
 40
0.100
 50
-168.981
 51
11.019
  0
LINE
  8
0
 10
4.780
 20
-0.769
 11
4.974
 21
0.227
  0
LINE
  8
0
 10
4.681
 20
-0.227
 11
4.875
 21
0.769
  0
ARC
  8
0
 10
4.974
 20
0.750
 40
0.100
 50
11.019
 51
-168.981
  0
LINE
  8
0
 10
4.875
 20
0.731
 11
5.167
 21
-0.769
  0
LINE
  8
0
 10
5.072
 20
0.769
 11
5.364
 21
-0.731
  0
ARC
  8
0
 10
5.266
 20
-0.750
 40
0.100
 50
-168.981
 51
11.019
  0
LINE
  8
0
 10
5.364
 20
-0.769
 11
5.558
 21
0.227
  0
LINE
  8
0
 10
5.266
 20
-0.227
 11
5.460
 21
0.769
  0
ARC
  8
0
 10
5.558
 20
0.750
 40
0.100
 50
11.019
 51
-168.981
  0
LINE
  8
0
 10
5.460
 20
0.731
 11
5.752
 21
-0.769
  0
LINE
  8
0
 10
5.656
 20
0.769
 11
5.948
 21
-0.731
  0
ARC
  8
0
 10
5.850
 20
-0.750
 40
0.100
 50
-168.981
 51
11.019
  0
LINE
  8
0
 10
5.948
 20
-0.769
 11
6.142
 21
0.227
  0
LINE
  8
0
 10
5.850
 20
-0.227
 11
6.044
 21
0.769
  0
ARC
  8
0
 10
6.142
 20
0.750
 40
0.100
 50
11.019
 51
-168.981
  0
LINE
  8
0
 10
6.044
 20
0.731
 11
6.336
 21
-0.769
  0
LINE
  8
0
 10
6.240
 20
0.769
 11
6.532
 21
-0.731
  0
ARC
  8
0
 10
6.434
 20
-0.750
 40
0.100
 50
-168.981
 51
11.019
  0
LINE
  8
0
 10
6.532
 20
-0.769
 11
6.726
 21
0.227
  0
LINE
  8
0
 10
6.434
 20
-0.227
 11
6.628
 21
0.769
  0
ARC
  8
0
 10
6.726
 20
0.750
 40
0.100
 50
11.019
 51
-168.981
  0
LINE
  8
0
 10
6.628
 20
0.731
 11
6.920
 21
-0.769
  0
LINE
  8
0
 10
6.824
 20
0.769
 11
7.116
 21
-0.731
  0
ARC
  8
0
 10
7.018
 20
-0.750
 40
0.100
 50
-168.981
 51
11.019
  0
LINE
  8
0
 10
7.116
 20
-0.769
 11
7.310
 21
0.227
  0
LINE
  8
0
 10
7.018
 20
-0.227
 11
7.212
 21
0.769
  0
ARC
  8
0
 10
7.310
 20
0.750
 40
0.100
 50
11.019
 51
-168.981
  0
LINE
  8
0
 10
7.212
 20
0.731
 11
7.504
 21
-0.769
  0
LINE
  8
0
 10
7.408
 20
0.769
 11
7.701
 21
-0.731
  0
ARC
  8
0
 10
7.602
 20
-0.750
 40
0.100
 50
-168.981
 51
11.019
  0
LINE
  8
0
 10
7.701
 20
-0.769
 11
7.894
 21
0.227
  0
LINE
  8
0
 10
7.602
 20
-0.227
 11
7.796
 21
0.769
  0
ARC
  8
0
 10
7.894
 20
0.750
 40
0.100
 50
11.019
 51
-168.981
  0
LINE
  8
0
 10
7.796
 20
0.731
 11
8.088
 21
-0.769
  0
LINE
  8
0
 10
7.993
 20
0.769
 11
8.285
 21
-0.731
  0
ARC
  8
0
 10
8.187
 20
-0.750
 40
0.100
 50
-168.981
 51
11.019
  0
LINE
  8
0
 10
8.285
 20
-0.769
 11
8.479
 21
0.227
  0
LINE
  8
0
 10
8.187
 20
-0.227
 11
8.381
 21
0.769
  0
ARC
  8
0
 10
8.479
 20
0.750
 40
0.100
 50
11.019
 51
-168.981
  0
LINE
  8
0
 10
8.381
 20
0.731
 11
8.673
 21
-0.769
  0
LINE
  8
0
 10
8.577
 20
0.769
 11
8.869
 21
-0.731
  0
ARC
  8
0
 10
8.771
 20
-0.750
 40
0.100
 50
-168.981
 51
11.019
  0
LINE
  8
0
 10
8.869
 20
-0.769
 11
9.063
 21
0.227
  0
LINE
  8
0
 10
8.771
 20
-0.227
 11
8.965
 21
0.769
  0
ARC
  8
0
 10
9.063
 20
0.750
 40
0.100
 50
11.019
 51
-168.981
  0
LINE
  8
0
 10
8.965
 20
0.731
 11
9.257
 21
-0.769
  0
LINE
  8
0
 10
9.161
 20
0.769
 11
9.453
 21
-0.731
  0
ARC
  8
0
 10
9.355
 20
-0.750
 40
0.100
 50
-168.981
 51
11.019
  0
LINE
  8
0
 10
9.453
 20
-0.769
 11
9.647
 21
0.227
  0
LINE
  8
0
 10
9.355
 20
-0.227
 11
9.549
 21
0.769
  0
ARC
  8
0
 10
9.647
 20
0.750
 40
0.100
 50
11.019
 51
-168.981
  0
LINE
  8
0
 10
9.549
 20
0.731
 11
9.841
 21
-0.769
  0
LINE
  8
0
 10
9.745
 20
0.769
 11
10.037
 21
-0.731
  0
ARC
  8
0
 10
9.939
 20
-0.750
 40
0.100
 50
-168.981
 51
11.019
  0
LINE
  8
0
 10
10.037
 20
-0.769
 11
10.231
 21
0.227
  0
LINE
  8
0
 10
9.939
 20
-0.227
 11
10.133
 21
0.769
  0
ARC
  8
0
 10
10.231
 20
0.750
 40
0.100
 50
11.019
 51
-168.981
  0
LINE
  8
0
 10
10.133
 20
0.731
 11
10.425
 21
-0.769
  0
LINE
  8
0
 10
10.329
 20
0.769
 11
10.622
 21
-0.731
  0
ARC
  8
0
 10
10.523
 20
-0.750
 40
0.100
 50
-168.981
 51
11.019
  0
LINE
  8
0
 10
10.622
 20
-0.769
 11
10.815
 21
0.227
  0
LINE
  8
0
 10
10.523
 20
-0.227
 11
10.717
 21
0.769
  0
ARC
  8
0
 10
10.815
 20
0.750
 40
0.100
 50
11.019
 51
-168.981
  0
LINE
  8
0
 10
10.717
 20
0.731
 11
11.009
 21
-0.769
  0
LINE
  8
0
 10
10.914
 20
0.769
 11
11.206
 21
-0.731
  0
ARC
  8
0
 10
11.108
 20
-0.750
 40
0.100
 50
-168.981
 51
11.019
  0
LINE
  8
0
 10
11.206
 20
-0.769
 11
11.400
 21
0.227
  0
LINE
  8
0
 10
11.108
 20
-0.227
 11
11.301
 21
0.769
  0
ARC
  8
0
 10
11.400
 20
0.750
 40
0.100
 50
11.019
 51
-168.981
  0
LINE
  8
0
 10
11.301
 20
0.731
 11
11.594
 21
-0.769
  0
LINE
  8
0
 10
11.498
 20
0.769
 11
11.790
 21
-0.731
  0
ARC
  8
0
 10
11.692
 20
-0.750
 40
0.100
 50
-168.981
 51
11.019
  0
LINE
  8
0
 10
11.673
 20
-0.132
 11
11.793
 21
0.763
  0
LINE
  8
0
 10
11.792
 20
0.750
 11
11.792
 21
-0.750
  0
LINE
  8
0
 10
11.992
 20
0.750
 11
11.992
 21
-0.750
  0
ARC
  8
0
 10
11.892
 20
-0.750
 40
0.100
 50
180.000
 51
0.000
  0
ARC
  8
0
 10
11.892
 20
0.750
 40
0.100
 50
0.000
 51
180.000
  0
ENDSEC
  0
EOF
