  0
SECTION
  2
ENTITIES
  0
ARC
  8
0
 10
0.090
 20
0.910
 40
0.090
 50
0.000
 51
180.000
  0
ARC
  8
0
 10
0.090
 20
-0.910
 40
0.090
 50
180.000
 51
0.000
  0
LINE
  8
0
 10
0.000
 20
0.910
 11
0.000
 21
-0.910
  0
LINE
  8
0
 10
0.180
 20
0.910
 11
0.180
 21
-0.910
  0
LINE
  8
0
 10
0.180
 20
-0.919
 11
0.304
 21
0.342
  0
ARC
  8
0
 10
0.270
 20
0.910
 40
0.090
 50
12.547
 51
-167.453
  0
LINE
  8
0
 10
0.182
 20
0.890
 11
0.587
 21
-0.930
  0
LINE
  8
0
 10
0.358
 20
0.930
 11
0.763
 21
-0.890
  0
ARC
  8
0
 10
0.675
 20
-0.910
 40
0.090
 50
-167.453
 51
12.547
  0
LINE
  8
0
 10
0.763
 20
-0.930
 11
1.080
 21
0.496
  0
LINE
  8
0
 10
0.675
 20
-0.496
 11
0.992
 21
0.930
  0
ARC
  8
0
 10
1.080
 20
0.910
 40
0.090
 50
12.547
 51
-167.453
  0
LINE
  8
0
 10
0.992
 20
0.890
 11
1.397
 21
-0.930
  0
LINE
  8
0
 10
1.168
 20
0.930
 11
1.573
 21
-0.890
  0
ARC
  8
0
 10
1.485
 20
-0.910
 40
0.090
 50
-167.453
 51
12.547
  0
LINE
  8
0
 10
1.573
 20
-0.930
 11
1.890
 21
0.496
  0
LINE
  8
0
 10
1.485
 20
-0.496
 11
1.802
 21
0.930
  0
ARC
  8
0
 10
1.890
 20
0.910
 40
0.090
 50
12.547
 51
-167.453
  0
LINE
  8
0
 10
1.802
 20
0.890
 11
2.207
 21
-0.930
  0
LINE
  8
0
 10
1.978
 20
0.930
 11
2.383
 21
-0.890
  0
ARC
  8
0
 10
2.295
 20
-0.910
 40
0.090
 50
-167.453
 51
12.547
  0
LINE
  8
0
 10
2.383
 20
-0.930
 11
2.700
 21
0.496
  0
LINE
  8
0
 10
2.295
 20
-0.496
 11
2.612
 21
0.930
  0
ARC
  8
0
 10
2.700
 20
0.910
 40
0.090
 50
12.547
 51
-167.453
  0
LINE
  8
0
 10
2.612
 20
0.890
 11
3.017
 21
-0.930
  0
LINE
  8
0
 10
2.788
 20
0.930
 11
3.193
 21
-0.890
  0
ARC
  8
0
 10
3.105
 20
-0.910
 40
0.090
 50
-167.453
 51
12.547
  0
LINE
  8
0
 10
3.193
 20
-0.930
 11
3.510
 21
0.496
  0
LINE
  8
0
 10
3.105
 20
-0.496
 11
3.423
 21
0.930
  0
ARC
  8
0
 10
3.510
 20
0.910
 40
0.090
 50
12.547
 51
-167.453
  0
LINE
  8
0
 10
3.423
 20
0.890
 11
3.828
 21
-0.930
  0
LINE
  8
0
 10
3.598
 20
0.930
 11
4.003
 21
-0.890
  0
ARC
  8
0
 10
3.915
 20
-0.910
 40
0.090
 50
-167.453
 51
12.547
  0
LINE
  8
0
 10
4.003
 20
-0.930
 11
4.320
 21
0.496
  0
LINE
  8
0
 10
3.915
 20
-0.496
 11
4.233
 21
0.930
  0
ARC
  8
0
 10
4.320
 20
0.910
 40
0.090
 50
12.547
 51
-167.453
  0
LINE
  8
0
 10
4.233
 20
0.890
 11
4.638
 21
-0.930
  0
LINE
  8
0
 10
4.408
 20
0.930
 11
4.813
 21
-0.890
  0
ARC
  8
0
 10
4.726
 20
-0.910
 40
0.090
 50
-167.453
 51
12.547
  0
LINE
  8
0
 10
4.691
 20
-0.342
 11
4.816
 21
0.919
  0
LINE
  8
0
 10
4.816
 20
0.910
 11
4.816
 21
-0.910
  0
LINE
  8
0
 10
4.996
 20
0.910
 11
4.996
 21
-0.910
  0
ARC
  8
0
 10
4.906
 20
-0.910
 40
0.090
 50
180.000
 51
0.000
  0
ARC
  8
0
 10
4.906
 20
0.910
 40
0.090
 50
0.000
 51
180.000
  0
ENDSEC
  0
EOF
