  0
SECTION
  2
ENTITIES
  0
ARC
  8
0
 10
0.090
 20
0.910
 40
0.090
 50
0.000
 51
180.000
  0
ARC
  8
0
 10
0.090
 20
-0.910
 40
0.090
 50
180.000
 51
0.000
  0
LINE
  8
0
 10
0.000
 20
0.910
 11
0.000
 21
-0.910
  0
LINE
  8
0
 10
0.180
 20
0.910
 11
0.180
 21
-0.910
  0
LINE
  8
0
 10
0.180
 20
-0.919
 11
0.306
 21
0.360
  0
ARC
  8
0
 10
0.270
 20
0.910
 40
0.090
 50
13.155
 51
-166.845
  0
LINE
  8
0
 10
0.182
 20
0.890
 11
0.608
 21
-0.930
  0
LINE
  8
0
 10
0.358
 20
0.930
 11
0.783
 21
-0.890
  0
ARC
  8
0
 10
0.695
 20
-0.910
 40
0.090
 50
-166.845
 51
13.155
  0
LINE
  8
0
 10
0.783
 20
-0.930
 11
1.121
 21
0.515
  0
LINE
  8
0
 10
0.695
 20
-0.515
 11
1.033
 21
0.930
  0
ARC
  8
0
 10
1.121
 20
0.910
 40
0.090
 50
13.155
 51
-166.845
  0
LINE
  8
0
 10
1.033
 20
0.890
 11
1.458
 21
-0.930
  0
LINE
  8
0
 10
1.208
 20
0.930
 11
1.634
 21
-0.890
  0
ARC
  8
0
 10
1.546
 20
-0.910
 40
0.090
 50
-166.845
 51
13.155
  0
LINE
  8
0
 10
1.634
 20
-0.930
 11
1.971
 21
0.515
  0
LINE
  8
0
 10
1.546
 20
-0.515
 11
1.884
 21
0.930
  0
ARC
  8
0
 10
1.971
 20
0.910
 40
0.090
 50
13.155
 51
-166.845
  0
LINE
  8
0
 10
1.884
 20
0.890
 11
2.309
 21
-0.930
  0
LINE
  8
0
 10
2.059
 20
0.930
 11
2.484
 21
-0.890
  0
ARC
  8
0
 10
2.397
 20
-0.910
 40
0.090
 50
-166.845
 51
13.155
  0
LINE
  8
0
 10
2.484
 20
-0.930
 11
2.822
 21
0.515
  0
LINE
  8
0
 10
2.397
 20
-0.515
 11
2.735
 21
0.930
  0
ARC
  8
0
 10
2.822
 20
0.910
 40
0.090
 50
13.155
 51
-166.845
  0
LINE
  8
0
 10
2.735
 20
0.890
 11
3.160
 21
-0.930
  0
LINE
  8
0
 10
2.910
 20
0.930
 11
3.335
 21
-0.890
  0
ARC
  8
0
 10
3.248
 20
-0.910
 40
0.090
 50
-166.845
 51
13.155
  0
LINE
  8
0
 10
3.335
 20
-0.930
 11
3.673
 21
0.515
  0
LINE
  8
0
 10
3.248
 20
-0.515
 11
3.585
 21
0.930
  0
ARC
  8
0
 10
3.673
 20
0.910
 40
0.090
 50
13.155
 51
-166.845
  0
LINE
  8
0
 10
3.585
 20
0.890
 11
4.011
 21
-0.930
  0
LINE
  8
0
 10
3.761
 20
0.930
 11
4.186
 21
-0.890
  0
ARC
  8
0
 10
4.098
 20
-0.910
 40
0.090
 50
-166.845
 51
13.155
  0
LINE
  8
0
 10
4.186
 20
-0.930
 11
4.524
 21
0.515
  0
LINE
  8
0
 10
4.098
 20
-0.515
 11
4.436
 21
0.930
  0
ARC
  8
0
 10
4.524
 20
0.910
 40
0.090
 50
13.155
 51
-166.845
  0
LINE
  8
0
 10
4.436
 20
0.890
 11
4.861
 21
-0.930
  0
LINE
  8
0
 10
4.611
 20
0.930
 11
5.037
 21
-0.890
  0
ARC
  8
0
 10
4.949
 20
-0.910
 40
0.090
 50
-166.845
 51
13.155
  0
LINE
  8
0
 10
5.037
 20
-0.930
 11
5.374
 21
0.515
  0
LINE
  8
0
 10
4.949
 20
-0.515
 11
5.287
 21
0.930
  0
ARC
  8
0
 10
5.374
 20
0.910
 40
0.090
 50
13.155
 51
-166.845
  0
LINE
  8
0
 10
5.287
 20
0.890
 11
5.712
 21
-0.930
  0
LINE
  8
0
 10
5.462
 20
0.930
 11
5.887
 21
-0.890
  0
ARC
  8
0
 10
5.800
 20
-0.910
 40
0.090
 50
-166.845
 51
13.155
  0
LINE
  8
0
 10
5.800
 20
-0.515
 11
6.137
 21
0.930
  0
LINE
  8
0
 10
5.887
 20
-0.930
 11
6.189
 21
0.360
  0
ARC
  8
0
 10
6.225
 20
0.910
 40
0.090
 50
5.648
 51
-174.352
  0
LINE
  8
0
 10
6.136
 20
0.901
 11
6.316
 21
-0.919
  0
LINE
  8
0
 10
6.315
 20
0.919
 11
6.495
 21
-0.906
  0
ARC
  8
0
 10
6.405
 20
-0.910
 40
0.090
 50
-174.352
 51
0.000
  0
CIRCLE
  8
0
 10
6.405
 20
0.910
 40
0.090
  0
LINE
  8
0
 10
6.495
 20
0.910
 11
6.495
 21
-0.910
  0
ENDSEC
  0
EOF
