  0
SECTION
  2
ENTITIES
  0
ARC
  8
0
 10
2.500
 20
0.000
 40
2.500
 50
67.500
 51
-0.859
  0
ARC
  8
0
 10
2.500
 20
0.000
 40
3.000
 50
67.500
 51
-26.469
  0
LINE
  8
0
 10
3.457
 20
2.310
 11
3.648
 21
2.772
  0
LINE
  8
0
 10
5.000
 20
-0.037
 11
5.031
 21
2.066
  0
ARC
  8
0
 10
5.281
 20
2.063
 40
0.250
 50
2.603
 51
-177.397
  0
LINE
  8
0
 10
5.032
 20
2.051
 11
5.250
 21
-2.761
  0
LINE
  8
0
 10
5.531
 20
2.074
 11
5.750
 21
-2.739
  0
ARC
  8
0
 10
5.500
 20
-2.750
 40
0.250
 50
-177.397
 51
2.603
  0
LINE
  8
0
 10
5.500
 20
2.761
 11
5.500
 21
2.756
  0
LINE
  8
0
 10
5.750
 20
-2.761
 11
5.750
 21
-2.756
  0
ARC
  8
0
 10
5.750
 20
2.750
 40
0.250
 50
2.603
 51
-177.397
  0
LINE
  8
0
 10
5.500
 20
2.739
 11
5.750
 21
-2.761
  0
LINE
  8
0
 10
6.000
 20
2.761
 11
6.250
 21
-2.739
  0
ARC
  8
0
 10
6.000
 20
-2.750
 40
0.250
 50
-177.397
 51
2.603
  0
LINE
  8
0
 10
6.000
 20
2.761
 11
6.000
 21
2.756
  0
LINE
  8
0
 10
6.250
 20
-2.761
 11
6.250
 21
-2.756
  0
ARC
  8
0
 10
6.250
 20
2.750
 40
0.250
 50
2.603
 51
-177.397
  0
LINE
  8
0
 10
6.000
 20
2.739
 11
6.250
 21
-2.761
  0
LINE
  8
0
 10
6.500
 20
2.761
 11
6.750
 21
-2.739
  0
ARC
  8
0
 10
6.500
 20
-2.750
 40
0.250
 50
-177.397
 51
2.603
  0
LINE
  8
0
 10
6.500
 20
2.761
 11
6.500
 21
2.756
  0
LINE
  8
0
 10
6.750
 20
-2.761
 11
6.750
 21
-2.756
  0
ARC
  8
0
 10
6.750
 20
2.750
 40
0.250
 50
2.603
 51
-177.397
  0
LINE
  8
0
 10
6.500
 20
2.739
 11
6.750
 21
-2.761
  0
LINE
  8
0
 10
7.000
 20
2.761
 11
7.250
 21
-2.739
  0
ARC
  8
0
 10
7.000
 20
-2.750
 40
0.250
 50
-177.397
 51
2.603
  0
LINE
  8
0
 10
7.000
 20
2.761
 11
7.000
 21
2.756
  0
LINE
  8
0
 10
7.250
 20
-2.761
 11
7.250
 21
-2.756
  0
ARC
  8
0
 10
7.250
 20
2.750
 40
0.250
 50
2.603
 51
-177.397
  0
LINE
  8
0
 10
7.000
 20
2.739
 11
7.250
 21
-2.761
  0
LINE
  8
0
 10
7.500
 20
2.761
 11
7.750
 21
-2.739
  0
ARC
  8
0
 10
7.500
 20
-2.750
 40
0.250
 50
-177.397
 51
2.603
  0
LINE
  8
0
 10
7.500
 20
2.761
 11
7.500
 21
2.756
  0
LINE
  8
0
 10
7.750
 20
-2.761
 11
7.750
 21
-2.756
  0
ARC
  8
0
 10
7.750
 20
2.750
 40
0.250
 50
2.603
 51
-177.397
  0
LINE
  8
0
 10
7.500
 20
2.739
 11
7.750
 21
-2.761
  0
LINE
  8
0
 10
8.000
 20
2.761
 11
8.250
 21
-2.739
  0
ARC
  8
0
 10
8.000
 20
-2.750
 40
0.250
 50
-177.397
 51
2.603
  0
LINE
  8
0
 10
8.000
 20
2.761
 11
8.000
 21
2.756
  0
LINE
  8
0
 10
8.250
 20
-2.761
 11
8.250
 21
-2.756
  0
ARC
  8
0
 10
8.250
 20
2.750
 40
0.250
 50
2.603
 51
-177.397
  0
LINE
  8
0
 10
8.000
 20
2.739
 11
8.250
 21
-2.761
  0
LINE
  8
0
 10
8.500
 20
2.761
 11
8.750
 21
-2.739
  0
ARC
  8
0
 10
8.500
 20
-2.750
 40
0.250
 50
-177.397
 51
2.603
  0
LINE
  8
0
 10
8.500
 20
2.761
 11
8.500
 21
2.756
  0
LINE
  8
0
 10
8.750
 20
-2.761
 11
8.750
 21
-2.756
  0
ARC
  8
0
 10
8.750
 20
2.750
 40
0.250
 50
2.603
 51
-177.397
  0
LINE
  8
0
 10
8.500
 20
2.739
 11
8.750
 21
-2.761
  0
LINE
  8
0
 10
9.000
 20
2.761
 11
9.250
 21
-2.739
  0
ARC
  8
0
 10
9.000
 20
-2.750
 40
0.250
 50
-177.397
 51
2.603
  0
LINE
  8
0
 10
9.000
 20
2.761
 11
9.000
 21
2.756
  0
LINE
  8
0
 10
9.250
 20
-2.761
 11
9.250
 21
-2.756
  0
ARC
  8
0
 10
9.250
 20
2.750
 40
0.250
 50
2.603
 51
-177.397
  0
LINE
  8
0
 10
9.000
 20
2.739
 11
9.250
 21
-2.761
  0
LINE
  8
0
 10
9.500
 20
2.761
 11
9.750
 21
-2.739
  0
ARC
  8
0
 10
9.500
 20
-2.750
 40
0.250
 50
-177.397
 51
2.603
  0
LINE
  8
0
 10
9.500
 20
2.761
 11
9.500
 21
2.756
  0
LINE
  8
0
 10
9.750
 20
-2.761
 11
9.750
 21
-2.756
  0
ARC
  8
0
 10
9.750
 20
2.750
 40
0.250
 50
2.603
 51
-177.397
  0
LINE
  8
0
 10
9.500
 20
2.739
 11
9.750
 21
-2.761
  0
LINE
  8
0
 10
10.000
 20
2.761
 11
10.250
 21
-2.739
  0
ARC
  8
0
 10
10.000
 20
-2.750
 40
0.250
 50
-177.397
 51
2.603
  0
LINE
  8
0
 10
10.000
 20
2.761
 11
10.000
 21
2.756
  0
LINE
  8
0
 10
10.250
 20
-2.761
 11
10.250
 21
-2.756
  0
ARC
  8
0
 10
10.250
 20
2.750
 40
0.250
 50
2.603
 51
-177.397
  0
LINE
  8
0
 10
10.000
 20
2.739
 11
10.250
 21
-2.761
  0
LINE
  8
0
 10
10.500
 20
2.761
 11
10.750
 21
-2.739
  0
ARC
  8
0
 10
10.500
 20
-2.750
 40
0.250
 50
-177.397
 51
2.603
  0
LINE
  8
0
 10
10.500
 20
2.761
 11
10.500
 21
2.756
  0
LINE
  8
0
 10
10.750
 20
-2.761
 11
10.750
 21
-2.756
  0
ARC
  8
0
 10
10.750
 20
2.750
 40
0.250
 50
2.603
 51
-177.397
  0
LINE
  8
0
 10
10.500
 20
2.739
 11
10.750
 21
-2.761
  0
LINE
  8
0
 10
11.000
 20
2.761
 11
11.250
 21
-2.739
  0
ARC
  8
0
 10
11.000
 20
-2.750
 40
0.250
 50
-177.397
 51
2.603
  0
LINE
  8
0
 10
11.000
 20
2.761
 11
11.000
 21
2.756
  0
LINE
  8
0
 10
11.250
 20
-2.761
 11
11.250
 21
-2.756
  0
ARC
  8
0
 10
11.250
 20
2.750
 40
0.250
 50
2.603
 51
-177.397
  0
LINE
  8
0
 10
11.000
 20
2.739
 11
11.250
 21
-2.761
  0
LINE
  8
0
 10
11.500
 20
2.761
 11
11.750
 21
-2.739
  0
ARC
  8
0
 10
11.500
 20
-2.750
 40
0.250
 50
-177.397
 51
2.603
  0
LINE
  8
0
 10
11.500
 20
2.761
 11
11.500
 21
2.756
  0
LINE
  8
0
 10
11.750
 20
-2.761
 11
11.750
 21
-2.756
  0
ARC
  8
0
 10
11.750
 20
2.750
 40
0.250
 50
2.603
 51
-177.397
  0
LINE
  8
0
 10
11.500
 20
2.739
 11
11.750
 21
-2.761
  0
LINE
  8
0
 10
12.000
 20
2.761
 11
12.250
 21
-2.739
  0
ARC
  8
0
 10
12.000
 20
-2.750
 40
0.250
 50
-177.397
 51
2.603
  0
LINE
  8
0
 10
12.000
 20
2.761
 11
12.000
 21
2.756
  0
LINE
  8
0
 10
12.250
 20
-2.761
 11
12.250
 21
-2.756
  0
ARC
  8
0
 10
12.250
 20
2.750
 40
0.250
 50
2.603
 51
-177.397
  0
LINE
  8
0
 10
12.000
 20
2.739
 11
12.250
 21
-2.761
  0
LINE
  8
0
 10
12.500
 20
2.761
 11
12.750
 21
-2.739
  0
ARC
  8
0
 10
12.500
 20
-2.750
 40
0.250
 50
-177.397
 51
2.603
  0
LINE
  8
0
 10
12.500
 20
2.761
 11
12.500
 21
2.756
  0
LINE
  8
0
 10
12.750
 20
-2.761
 11
12.750
 21
-2.756
  0
ARC
  8
0
 10
12.750
 20
2.750
 40
0.250
 50
2.603
 51
-177.397
  0
LINE
  8
0
 10
12.500
 20
2.739
 11
12.750
 21
-2.761
  0
LINE
  8
0
 10
13.000
 20
2.761
 11
13.250
 21
-2.739
  0
ARC
  8
0
 10
13.000
 20
-2.750
 40
0.250
 50
-177.397
 51
2.603
  0
LINE
  8
0
 10
13.000
 20
2.761
 11
13.000
 21
2.756
  0
LINE
  8
0
 10
13.250
 20
-2.761
 11
13.250
 21
-2.756
  0
ARC
  8
0
 10
13.250
 20
2.750
 40
0.250
 50
2.603
 51
-177.397
  0
LINE
  8
0
 10
13.000
 20
2.739
 11
13.250
 21
-2.761
  0
LINE
  8
0
 10
13.500
 20
2.761
 11
13.750
 21
-2.739
  0
ARC
  8
0
 10
13.500
 20
-2.750
 40
0.250
 50
-177.397
 51
2.603
  0
LINE
  8
0
 10
13.500
 20
2.761
 11
13.500
 21
2.756
  0
LINE
  8
0
 10
13.750
 20
-2.761
 11
13.750
 21
-2.756
  0
ARC
  8
0
 10
13.750
 20
2.750
 40
0.250
 50
2.603
 51
-177.397
  0
LINE
  8
0
 10
13.500
 20
2.739
 11
13.750
 21
-2.761
  0
LINE
  8
0
 10
14.000
 20
2.761
 11
14.250
 21
-2.739
  0
ARC
  8
0
 10
14.000
 20
-2.750
 40
0.250
 50
-177.397
 51
2.603
  0
LINE
  8
0
 10
14.000
 20
2.761
 11
14.000
 21
2.756
  0
LINE
  8
0
 10
14.250
 20
-2.761
 11
14.250
 21
-2.756
  0
ARC
  8
0
 10
14.250
 20
2.750
 40
0.250
 50
2.603
 51
-177.397
  0
LINE
  8
0
 10
14.000
 20
2.739
 11
14.219
 21
-2.074
  0
LINE
  8
0
 10
14.500
 20
2.761
 11
14.718
 21
-2.051
  0
ARC
  8
0
 10
14.469
 20
-2.063
 40
0.250
 50
-177.397
 51
2.603
  0
LINE
  8
0
 10
14.719
 20
-2.066
 11
14.750
 21
0.037
  0
ARC
  8
0
 10
17.250
 20
0.000
 40
2.500
 50
-112.500
 51
179.141
  0
ARC
  8
0
 10
17.250
 20
0.000
 40
3.000
 50
-112.500
 51
153.531
  0
LINE
  8
0
 10
16.102
 20
-2.772
 11
16.293
 21
-2.310
  0
ENDSEC
  0
EOF
