  0
SECTION
  2
ENTITIES
  0
ARC
  8
0
 10
2.500
 20
0.000
 40
2.500
 50
67.500
 51
-0.859
  0
ARC
  8
0
 10
2.500
 20
0.000
 40
3.000
 50
67.500
 51
-26.469
  0
LINE
  8
0
 10
3.457
 20
2.310
 11
3.648
 21
2.772
  0
LINE
  8
0
 10
5.000
 20
-0.037
 11
5.031
 21
2.066
  0
ARC
  8
0
 10
5.281
 20
2.063
 40
0.250
 50
2.603
 51
-177.397
  0
LINE
  8
0
 10
5.032
 20
2.051
 11
5.250
 21
-2.761
  0
LINE
  8
0
 10
5.531
 20
2.074
 11
5.750
 21
-2.739
  0
ARC
  8
0
 10
5.500
 20
-2.750
 40
0.250
 50
-177.397
 51
2.603
  0
LINE
  8
0
 10
5.500
 20
2.761
 11
5.500
 21
2.756
  0
LINE
  8
0
 10
5.750
 20
-2.761
 11
5.750
 21
-2.756
  0
ARC
  8
0
 10
5.750
 20
2.750
 40
0.250
 50
2.603
 51
-177.397
  0
LINE
  8
0
 10
5.500
 20
2.739
 11
5.750
 21
-2.761
  0
LINE
  8
0
 10
6.000
 20
2.761
 11
6.250
 21
-2.739
  0
ARC
  8
0
 10
6.000
 20
-2.750
 40
0.250
 50
-177.397
 51
2.603
  0
LINE
  8
0
 10
6.000
 20
2.761
 11
6.000
 21
2.756
  0
LINE
  8
0
 10
6.250
 20
-2.761
 11
6.250
 21
-2.756
  0
ARC
  8
0
 10
6.250
 20
2.750
 40
0.250
 50
2.603
 51
-177.397
  0
LINE
  8
0
 10
6.000
 20
2.739
 11
6.250
 21
-2.761
  0
LINE
  8
0
 10
6.500
 20
2.761
 11
6.750
 21
-2.739
  0
ARC
  8
0
 10
6.500
 20
-2.750
 40
0.250
 50
-177.397
 51
2.603
  0
LINE
  8
0
 10
6.500
 20
2.761
 11
6.500
 21
2.756
  0
LINE
  8
0
 10
6.750
 20
-2.761
 11
6.750
 21
-2.756
  0
ARC
  8
0
 10
6.750
 20
2.750
 40
0.250
 50
2.603
 51
-177.397
  0
LINE
  8
0
 10
6.500
 20
2.739
 11
6.750
 21
-2.761
  0
LINE
  8
0
 10
7.000
 20
2.761
 11
7.250
 21
-2.739
  0
ARC
  8
0
 10
7.000
 20
-2.750
 40
0.250
 50
-177.397
 51
2.603
  0
LINE
  8
0
 10
7.000
 20
2.761
 11
7.000
 21
2.756
  0
LINE
  8
0
 10
7.250
 20
-2.761
 11
7.250
 21
-2.756
  0
ARC
  8
0
 10
7.250
 20
2.750
 40
0.250
 50
2.603
 51
-177.397
  0
LINE
  8
0
 10
7.000
 20
2.739
 11
7.250
 21
-2.761
  0
LINE
  8
0
 10
7.500
 20
2.761
 11
7.750
 21
-2.739
  0
ARC
  8
0
 10
7.500
 20
-2.750
 40
0.250
 50
-177.397
 51
2.603
  0
LINE
  8
0
 10
7.500
 20
2.761
 11
7.500
 21
2.756
  0
LINE
  8
0
 10
7.750
 20
-2.761
 11
7.750
 21
-2.756
  0
ARC
  8
0
 10
7.750
 20
2.750
 40
0.250
 50
2.603
 51
-177.397
  0
LINE
  8
0
 10
7.500
 20
2.739
 11
7.750
 21
-2.761
  0
LINE
  8
0
 10
8.000
 20
2.761
 11
8.250
 21
-2.739
  0
ARC
  8
0
 10
8.000
 20
-2.750
 40
0.250
 50
-177.397
 51
2.603
  0
LINE
  8
0
 10
8.000
 20
2.761
 11
8.000
 21
2.756
  0
LINE
  8
0
 10
8.250
 20
-2.761
 11
8.250
 21
-2.756
  0
ARC
  8
0
 10
8.250
 20
2.750
 40
0.250
 50
2.603
 51
-177.397
  0
LINE
  8
0
 10
8.000
 20
2.739
 11
8.250
 21
-2.761
  0
LINE
  8
0
 10
8.500
 20
2.761
 11
8.750
 21
-2.739
  0
ARC
  8
0
 10
8.500
 20
-2.750
 40
0.250
 50
-177.397
 51
2.603
  0
LINE
  8
0
 10
8.500
 20
2.761
 11
8.500
 21
2.756
  0
LINE
  8
0
 10
8.750
 20
-2.761
 11
8.750
 21
-2.756
  0
ARC
  8
0
 10
8.750
 20
2.750
 40
0.250
 50
2.603
 51
-177.397
  0
LINE
  8
0
 10
8.500
 20
2.739
 11
8.750
 21
-2.761
  0
LINE
  8
0
 10
9.000
 20
2.761
 11
9.250
 21
-2.739
  0
ARC
  8
0
 10
9.000
 20
-2.750
 40
0.250
 50
-177.397
 51
2.603
  0
LINE
  8
0
 10
9.000
 20
2.761
 11
9.000
 21
2.756
  0
LINE
  8
0
 10
9.250
 20
-2.761
 11
9.250
 21
-2.756
  0
ARC
  8
0
 10
9.250
 20
2.750
 40
0.250
 50
2.603
 51
-177.397
  0
LINE
  8
0
 10
9.000
 20
2.739
 11
9.250
 21
-2.761
  0
LINE
  8
0
 10
9.500
 20
2.761
 11
9.750
 21
-2.739
  0
ARC
  8
0
 10
9.500
 20
-2.750
 40
0.250
 50
-177.397
 51
2.603
  0
LINE
  8
0
 10
9.500
 20
2.761
 11
9.500
 21
2.756
  0
LINE
  8
0
 10
9.750
 20
-2.761
 11
9.750
 21
-2.756
  0
ARC
  8
0
 10
9.750
 20
2.750
 40
0.250
 50
2.603
 51
-177.397
  0
LINE
  8
0
 10
9.500
 20
2.739
 11
9.750
 21
-2.761
  0
LINE
  8
0
 10
10.000
 20
2.761
 11
10.250
 21
-2.739
  0
ARC
  8
0
 10
10.000
 20
-2.750
 40
0.250
 50
-177.397
 51
2.603
  0
LINE
  8
0
 10
10.000
 20
2.761
 11
10.000
 21
2.756
  0
LINE
  8
0
 10
10.250
 20
-2.761
 11
10.250
 21
-2.756
  0
ARC
  8
0
 10
10.250
 20
2.750
 40
0.250
 50
2.603
 51
-177.397
  0
LINE
  8
0
 10
10.000
 20
2.739
 11
10.250
 21
-2.761
  0
LINE
  8
0
 10
10.500
 20
2.761
 11
10.750
 21
-2.739
  0
ARC
  8
0
 10
10.500
 20
-2.750
 40
0.250
 50
-177.397
 51
2.603
  0
LINE
  8
0
 10
10.500
 20
2.761
 11
10.500
 21
2.756
  0
LINE
  8
0
 10
10.750
 20
-2.761
 11
10.750
 21
-2.756
  0
ARC
  8
0
 10
10.750
 20
2.750
 40
0.250
 50
2.603
 51
-177.397
  0
LINE
  8
0
 10
10.500
 20
2.739
 11
10.750
 21
-2.761
  0
LINE
  8
0
 10
11.000
 20
2.761
 11
11.250
 21
-2.739
  0
ARC
  8
0
 10
11.000
 20
-2.750
 40
0.250
 50
-177.397
 51
2.603
  0
LINE
  8
0
 10
11.000
 20
2.761
 11
11.000
 21
2.756
  0
LINE
  8
0
 10
11.250
 20
-2.761
 11
11.250
 21
-2.756
  0
ARC
  8
0
 10
11.250
 20
2.750
 40
0.250
 50
2.603
 51
-177.397
  0
LINE
  8
0
 10
11.000
 20
2.739
 11
11.250
 21
-2.761
  0
LINE
  8
0
 10
11.500
 20
2.761
 11
11.750
 21
-2.739
  0
ARC
  8
0
 10
11.500
 20
-2.750
 40
0.250
 50
-177.397
 51
2.603
  0
LINE
  8
0
 10
11.500
 20
2.761
 11
11.500
 21
2.756
  0
LINE
  8
0
 10
11.750
 20
-2.761
 11
11.750
 21
-2.756
  0
ARC
  8
0
 10
11.750
 20
2.750
 40
0.250
 50
2.603
 51
-177.397
  0
LINE
  8
0
 10
11.500
 20
2.739
 11
11.750
 21
-2.761
  0
LINE
  8
0
 10
12.000
 20
2.761
 11
12.250
 21
-2.739
  0
ARC
  8
0
 10
12.000
 20
-2.750
 40
0.250
 50
-177.397
 51
2.603
  0
LINE
  8
0
 10
12.000
 20
2.761
 11
12.000
 21
2.756
  0
LINE
  8
0
 10
12.250
 20
-2.761
 11
12.250
 21
-2.756
  0
ARC
  8
0
 10
12.250
 20
2.750
 40
0.250
 50
2.603
 51
-177.397
  0
LINE
  8
0
 10
12.000
 20
2.739
 11
12.250
 21
-2.761
  0
LINE
  8
0
 10
12.500
 20
2.761
 11
12.750
 21
-2.739
  0
ARC
  8
0
 10
12.500
 20
-2.750
 40
0.250
 50
-177.397
 51
2.603
  0
LINE
  8
0
 10
12.500
 20
2.761
 11
12.500
 21
2.756
  0
LINE
  8
0
 10
12.750
 20
-2.761
 11
12.750
 21
-2.756
  0
ARC
  8
0
 10
12.750
 20
2.750
 40
0.250
 50
2.603
 51
-177.397
  0
LINE
  8
0
 10
12.500
 20
2.739
 11
12.750
 21
-2.761
  0
LINE
  8
0
 10
13.000
 20
2.761
 11
13.250
 21
-2.739
  0
ARC
  8
0
 10
13.000
 20
-2.750
 40
0.250
 50
-177.397
 51
2.603
  0
LINE
  8
0
 10
13.000
 20
2.761
 11
13.000
 21
2.756
  0
LINE
  8
0
 10
13.250
 20
-2.761
 11
13.250
 21
-2.756
  0
ARC
  8
0
 10
13.250
 20
2.750
 40
0.250
 50
2.603
 51
-177.397
  0
LINE
  8
0
 10
13.000
 20
2.739
 11
13.250
 21
-2.761
  0
LINE
  8
0
 10
13.500
 20
2.761
 11
13.750
 21
-2.739
  0
ARC
  8
0
 10
13.500
 20
-2.750
 40
0.250
 50
-177.397
 51
2.603
  0
LINE
  8
0
 10
13.500
 20
2.761
 11
13.500
 21
2.756
  0
LINE
  8
0
 10
13.750
 20
-2.761
 11
13.750
 21
-2.756
  0
ARC
  8
0
 10
13.750
 20
2.750
 40
0.250
 50
2.603
 51
-177.397
  0
LINE
  8
0
 10
13.500
 20
2.739
 11
13.750
 21
-2.761
  0
LINE
  8
0
 10
14.000
 20
2.761
 11
14.250
 21
-2.739
  0
ARC
  8
0
 10
14.000
 20
-2.750
 40
0.250
 50
-177.397
 51
2.603
  0
LINE
  8
0
 10
14.000
 20
2.761
 11
14.000
 21
2.756
  0
LINE
  8
0
 10
14.250
 20
-2.761
 11
14.250
 21
-2.756
  0
ARC
  8
0
 10
14.250
 20
2.750
 40
0.250
 50
2.603
 51
-177.397
  0
LINE
  8
0
 10
14.000
 20
2.739
 11
14.250
 21
-2.761
  0
LINE
  8
0
 10
14.500
 20
2.761
 11
14.750
 21
-2.739
  0
ARC
  8
0
 10
14.500
 20
-2.750
 40
0.250
 50
-177.397
 51
2.603
  0
LINE
  8
0
 10
14.500
 20
2.761
 11
14.500
 21
2.756
  0
LINE
  8
0
 10
14.750
 20
-2.761
 11
14.750
 21
-2.756
  0
ARC
  8
0
 10
14.750
 20
2.750
 40
0.250
 50
2.603
 51
-177.397
  0
LINE
  8
0
 10
14.500
 20
2.739
 11
14.750
 21
-2.761
  0
LINE
  8
0
 10
15.000
 20
2.761
 11
15.250
 21
-2.739
  0
ARC
  8
0
 10
15.000
 20
-2.750
 40
0.250
 50
-177.397
 51
2.603
  0
LINE
  8
0
 10
15.000
 20
2.761
 11
15.000
 21
2.756
  0
LINE
  8
0
 10
15.250
 20
-2.761
 11
15.250
 21
-2.756
  0
ARC
  8
0
 10
15.250
 20
2.750
 40
0.250
 50
2.603
 51
-177.397
  0
LINE
  8
0
 10
15.000
 20
2.739
 11
15.250
 21
-2.761
  0
LINE
  8
0
 10
15.500
 20
2.761
 11
15.750
 21
-2.739
  0
ARC
  8
0
 10
15.500
 20
-2.750
 40
0.250
 50
-177.397
 51
2.603
  0
LINE
  8
0
 10
15.500
 20
2.761
 11
15.500
 21
2.756
  0
LINE
  8
0
 10
15.750
 20
-2.761
 11
15.750
 21
-2.756
  0
ARC
  8
0
 10
15.750
 20
2.750
 40
0.250
 50
2.603
 51
-177.397
  0
LINE
  8
0
 10
15.500
 20
2.739
 11
15.750
 21
-2.761
  0
LINE
  8
0
 10
16.000
 20
2.761
 11
16.250
 21
-2.739
  0
ARC
  8
0
 10
16.000
 20
-2.750
 40
0.250
 50
-177.397
 51
2.603
  0
LINE
  8
0
 10
16.000
 20
2.761
 11
16.000
 21
2.756
  0
LINE
  8
0
 10
16.250
 20
-2.761
 11
16.250
 21
-2.756
  0
ARC
  8
0
 10
16.250
 20
2.750
 40
0.250
 50
2.603
 51
-177.397
  0
LINE
  8
0
 10
16.000
 20
2.739
 11
16.250
 21
-2.761
  0
LINE
  8
0
 10
16.500
 20
2.761
 11
16.750
 21
-2.739
  0
ARC
  8
0
 10
16.500
 20
-2.750
 40
0.250
 50
-177.397
 51
2.603
  0
LINE
  8
0
 10
16.500
 20
2.761
 11
16.500
 21
2.756
  0
LINE
  8
0
 10
16.750
 20
-2.761
 11
16.750
 21
-2.756
  0
ARC
  8
0
 10
16.750
 20
2.750
 40
0.250
 50
2.603
 51
-177.397
  0
LINE
  8
0
 10
16.500
 20
2.739
 11
16.750
 21
-2.761
  0
LINE
  8
0
 10
17.000
 20
2.761
 11
17.250
 21
-2.739
  0
ARC
  8
0
 10
17.000
 20
-2.750
 40
0.250
 50
-177.397
 51
2.603
  0
LINE
  8
0
 10
17.000
 20
2.761
 11
17.000
 21
2.756
  0
LINE
  8
0
 10
17.250
 20
-2.761
 11
17.250
 21
-2.756
  0
ARC
  8
0
 10
17.250
 20
2.750
 40
0.250
 50
2.603
 51
-177.397
  0
LINE
  8
0
 10
17.000
 20
2.739
 11
17.250
 21
-2.761
  0
LINE
  8
0
 10
17.500
 20
2.761
 11
17.750
 21
-2.739
  0
ARC
  8
0
 10
17.500
 20
-2.750
 40
0.250
 50
-177.397
 51
2.603
  0
LINE
  8
0
 10
17.500
 20
2.761
 11
17.500
 21
2.756
  0
LINE
  8
0
 10
17.750
 20
-2.761
 11
17.750
 21
-2.756
  0
ARC
  8
0
 10
17.750
 20
2.750
 40
0.250
 50
2.603
 51
-177.397
  0
LINE
  8
0
 10
17.500
 20
2.739
 11
17.750
 21
-2.761
  0
LINE
  8
0
 10
18.000
 20
2.761
 11
18.250
 21
-2.739
  0
ARC
  8
0
 10
18.000
 20
-2.750
 40
0.250
 50
-177.397
 51
2.603
  0
LINE
  8
0
 10
18.000
 20
2.761
 11
18.000
 21
2.756
  0
LINE
  8
0
 10
18.250
 20
-2.761
 11
18.250
 21
-2.756
  0
ARC
  8
0
 10
18.250
 20
2.750
 40
0.250
 50
2.603
 51
-177.397
  0
LINE
  8
0
 10
18.000
 20
2.739
 11
18.250
 21
-2.761
  0
LINE
  8
0
 10
18.500
 20
2.761
 11
18.750
 21
-2.739
  0
ARC
  8
0
 10
18.500
 20
-2.750
 40
0.250
 50
-177.397
 51
2.603
  0
LINE
  8
0
 10
18.500
 20
2.761
 11
18.500
 21
2.756
  0
LINE
  8
0
 10
18.750
 20
-2.761
 11
18.750
 21
-2.756
  0
ARC
  8
0
 10
18.750
 20
2.750
 40
0.250
 50
2.603
 51
-177.397
  0
LINE
  8
0
 10
18.500
 20
2.739
 11
18.750
 21
-2.761
  0
LINE
  8
0
 10
19.000
 20
2.761
 11
19.250
 21
-2.739
  0
ARC
  8
0
 10
19.000
 20
-2.750
 40
0.250
 50
-177.397
 51
2.603
  0
LINE
  8
0
 10
19.000
 20
2.761
 11
19.000
 21
2.756
  0
LINE
  8
0
 10
19.250
 20
-2.761
 11
19.250
 21
-2.756
  0
ARC
  8
0
 10
19.250
 20
2.750
 40
0.250
 50
2.603
 51
-177.397
  0
LINE
  8
0
 10
19.000
 20
2.739
 11
19.250
 21
-2.761
  0
LINE
  8
0
 10
19.500
 20
2.761
 11
19.750
 21
-2.739
  0
ARC
  8
0
 10
19.500
 20
-2.750
 40
0.250
 50
-177.397
 51
2.603
  0
LINE
  8
0
 10
19.500
 20
2.761
 11
19.500
 21
2.756
  0
LINE
  8
0
 10
19.750
 20
-2.761
 11
19.750
 21
-2.756
  0
ARC
  8
0
 10
19.750
 20
2.750
 40
0.250
 50
2.603
 51
-177.397
  0
LINE
  8
0
 10
19.500
 20
2.739
 11
19.750
 21
-2.761
  0
LINE
  8
0
 10
20.000
 20
2.761
 11
20.250
 21
-2.739
  0
ARC
  8
0
 10
20.000
 20
-2.750
 40
0.250
 50
-177.397
 51
2.603
  0
LINE
  8
0
 10
20.000
 20
2.761
 11
20.000
 21
2.756
  0
LINE
  8
0
 10
20.250
 20
-2.761
 11
20.250
 21
-2.756
  0
ARC
  8
0
 10
20.250
 20
2.750
 40
0.250
 50
2.603
 51
-177.397
  0
LINE
  8
0
 10
20.000
 20
2.739
 11
20.250
 21
-2.761
  0
LINE
  8
0
 10
20.500
 20
2.761
 11
20.750
 21
-2.739
  0
ARC
  8
0
 10
20.500
 20
-2.750
 40
0.250
 50
-177.397
 51
2.603
  0
LINE
  8
0
 10
20.500
 20
2.761
 11
20.500
 21
2.756
  0
LINE
  8
0
 10
20.750
 20
-2.761
 11
20.750
 21
-2.756
  0
ARC
  8
0
 10
20.750
 20
2.750
 40
0.250
 50
2.603
 51
-177.397
  0
LINE
  8
0
 10
20.500
 20
2.739
 11
20.750
 21
-2.761
  0
LINE
  8
0
 10
21.000
 20
2.761
 11
21.250
 21
-2.739
  0
ARC
  8
0
 10
21.000
 20
-2.750
 40
0.250
 50
-177.397
 51
2.603
  0
LINE
  8
0
 10
21.000
 20
2.761
 11
21.000
 21
2.756
  0
LINE
  8
0
 10
21.250
 20
-2.761
 11
21.250
 21
-2.756
  0
ARC
  8
0
 10
21.250
 20
2.750
 40
0.250
 50
2.603
 51
-177.397
  0
LINE
  8
0
 10
21.000
 20
2.739
 11
21.250
 21
-2.761
  0
LINE
  8
0
 10
21.500
 20
2.761
 11
21.750
 21
-2.739
  0
ARC
  8
0
 10
21.500
 20
-2.750
 40
0.250
 50
-177.397
 51
2.603
  0
LINE
  8
0
 10
21.500
 20
2.761
 11
21.500
 21
2.756
  0
LINE
  8
0
 10
21.750
 20
-2.761
 11
21.750
 21
-2.756
  0
ARC
  8
0
 10
21.750
 20
2.750
 40
0.250
 50
2.603
 51
-177.397
  0
LINE
  8
0
 10
21.500
 20
2.739
 11
21.750
 21
-2.761
  0
LINE
  8
0
 10
22.000
 20
2.761
 11
22.250
 21
-2.739
  0
ARC
  8
0
 10
22.000
 20
-2.750
 40
0.250
 50
-177.397
 51
2.603
  0
LINE
  8
0
 10
22.000
 20
2.761
 11
22.000
 21
2.756
  0
LINE
  8
0
 10
22.250
 20
-2.761
 11
22.250
 21
-2.756
  0
ARC
  8
0
 10
22.250
 20
2.750
 40
0.250
 50
2.603
 51
-177.397
  0
LINE
  8
0
 10
22.000
 20
2.739
 11
22.250
 21
-2.761
  0
LINE
  8
0
 10
22.500
 20
2.761
 11
22.750
 21
-2.739
  0
ARC
  8
0
 10
22.500
 20
-2.750
 40
0.250
 50
-177.397
 51
2.603
  0
LINE
  8
0
 10
22.500
 20
2.761
 11
22.500
 21
2.756
  0
LINE
  8
0
 10
22.750
 20
-2.761
 11
22.750
 21
-2.756
  0
ARC
  8
0
 10
22.750
 20
2.750
 40
0.250
 50
2.603
 51
-177.397
  0
LINE
  8
0
 10
22.500
 20
2.739
 11
22.750
 21
-2.761
  0
LINE
  8
0
 10
23.000
 20
2.761
 11
23.250
 21
-2.739
  0
ARC
  8
0
 10
23.000
 20
-2.750
 40
0.250
 50
-177.397
 51
2.603
  0
LINE
  8
0
 10
23.000
 20
2.761
 11
23.000
 21
2.756
  0
LINE
  8
0
 10
23.250
 20
-2.761
 11
23.250
 21
-2.756
  0
ARC
  8
0
 10
23.250
 20
2.750
 40
0.250
 50
2.603
 51
-177.397
  0
LINE
  8
0
 10
23.000
 20
2.739
 11
23.250
 21
-2.761
  0
LINE
  8
0
 10
23.500
 20
2.761
 11
23.750
 21
-2.739
  0
ARC
  8
0
 10
23.500
 20
-2.750
 40
0.250
 50
-177.397
 51
2.603
  0
LINE
  8
0
 10
23.500
 20
2.761
 11
23.500
 21
2.756
  0
LINE
  8
0
 10
23.750
 20
-2.761
 11
23.750
 21
-2.756
  0
ARC
  8
0
 10
23.750
 20
2.750
 40
0.250
 50
2.603
 51
-177.397
  0
LINE
  8
0
 10
23.500
 20
2.739
 11
23.750
 21
-2.761
  0
LINE
  8
0
 10
24.000
 20
2.761
 11
24.250
 21
-2.739
  0
ARC
  8
0
 10
24.000
 20
-2.750
 40
0.250
 50
-177.397
 51
2.603
  0
LINE
  8
0
 10
24.000
 20
2.761
 11
24.000
 21
2.756
  0
LINE
  8
0
 10
24.250
 20
-2.761
 11
24.250
 21
-2.756
  0
ARC
  8
0
 10
24.250
 20
2.750
 40
0.250
 50
2.603
 51
-177.397
  0
LINE
  8
0
 10
24.000
 20
2.739
 11
24.250
 21
-2.761
  0
LINE
  8
0
 10
24.500
 20
2.761
 11
24.750
 21
-2.739
  0
ARC
  8
0
 10
24.500
 20
-2.750
 40
0.250
 50
-177.397
 51
2.603
  0
LINE
  8
0
 10
24.500
 20
2.761
 11
24.500
 21
2.756
  0
LINE
  8
0
 10
24.750
 20
-2.761
 11
24.750
 21
-2.756
  0
ARC
  8
0
 10
24.750
 20
2.750
 40
0.250
 50
2.603
 51
-177.397
  0
LINE
  8
0
 10
24.500
 20
2.739
 11
24.750
 21
-2.761
  0
LINE
  8
0
 10
25.000
 20
2.761
 11
25.250
 21
-2.739
  0
ARC
  8
0
 10
25.000
 20
-2.750
 40
0.250
 50
-177.397
 51
2.603
  0
LINE
  8
0
 10
25.000
 20
2.761
 11
25.000
 21
2.756
  0
LINE
  8
0
 10
25.250
 20
-2.761
 11
25.250
 21
-2.756
  0
ARC
  8
0
 10
25.250
 20
2.750
 40
0.250
 50
2.603
 51
-177.397
  0
LINE
  8
0
 10
25.000
 20
2.739
 11
25.250
 21
-2.761
  0
LINE
  8
0
 10
25.500
 20
2.761
 11
25.750
 21
-2.739
  0
ARC
  8
0
 10
25.500
 20
-2.750
 40
0.250
 50
-177.397
 51
2.603
  0
LINE
  8
0
 10
25.500
 20
2.761
 11
25.500
 21
2.756
  0
LINE
  8
0
 10
25.750
 20
-2.761
 11
25.750
 21
-2.756
  0
ARC
  8
0
 10
25.750
 20
2.750
 40
0.250
 50
2.603
 51
-177.397
  0
LINE
  8
0
 10
25.500
 20
2.739
 11
25.750
 21
-2.761
  0
LINE
  8
0
 10
26.000
 20
2.761
 11
26.250
 21
-2.739
  0
ARC
  8
0
 10
26.000
 20
-2.750
 40
0.250
 50
-177.397
 51
2.603
  0
LINE
  8
0
 10
26.000
 20
2.761
 11
26.000
 21
2.756
  0
LINE
  8
0
 10
26.250
 20
-2.761
 11
26.250
 21
-2.756
  0
ARC
  8
0
 10
26.250
 20
2.750
 40
0.250
 50
2.603
 51
-177.397
  0
LINE
  8
0
 10
26.000
 20
2.739
 11
26.250
 21
-2.761
  0
LINE
  8
0
 10
26.500
 20
2.761
 11
26.750
 21
-2.739
  0
ARC
  8
0
 10
26.500
 20
-2.750
 40
0.250
 50
-177.397
 51
2.603
  0
LINE
  8
0
 10
26.500
 20
2.761
 11
26.500
 21
2.756
  0
LINE
  8
0
 10
26.750
 20
-2.761
 11
26.750
 21
-2.756
  0
ARC
  8
0
 10
26.750
 20
2.750
 40
0.250
 50
2.603
 51
-177.397
  0
LINE
  8
0
 10
26.500
 20
2.739
 11
26.750
 21
-2.761
  0
LINE
  8
0
 10
27.000
 20
2.761
 11
27.250
 21
-2.739
  0
ARC
  8
0
 10
27.000
 20
-2.750
 40
0.250
 50
-177.397
 51
2.603
  0
LINE
  8
0
 10
27.000
 20
2.761
 11
27.000
 21
2.756
  0
LINE
  8
0
 10
27.250
 20
-2.761
 11
27.250
 21
-2.756
  0
ARC
  8
0
 10
27.250
 20
2.750
 40
0.250
 50
2.603
 51
-177.397
  0
LINE
  8
0
 10
27.000
 20
2.739
 11
27.250
 21
-2.761
  0
LINE
  8
0
 10
27.500
 20
2.761
 11
27.750
 21
-2.739
  0
ARC
  8
0
 10
27.500
 20
-2.750
 40
0.250
 50
-177.397
 51
2.603
  0
LINE
  8
0
 10
27.500
 20
2.761
 11
27.500
 21
2.756
  0
LINE
  8
0
 10
27.750
 20
-2.761
 11
27.750
 21
-2.756
  0
ARC
  8
0
 10
27.750
 20
2.750
 40
0.250
 50
2.603
 51
-177.397
  0
LINE
  8
0
 10
27.500
 20
2.739
 11
27.750
 21
-2.761
  0
LINE
  8
0
 10
28.000
 20
2.761
 11
28.250
 21
-2.739
  0
ARC
  8
0
 10
28.000
 20
-2.750
 40
0.250
 50
-177.397
 51
2.603
  0
LINE
  8
0
 10
28.000
 20
2.761
 11
28.000
 21
2.756
  0
LINE
  8
0
 10
28.250
 20
-2.761
 11
28.250
 21
-2.756
  0
ARC
  8
0
 10
28.250
 20
2.750
 40
0.250
 50
2.603
 51
-177.397
  0
LINE
  8
0
 10
28.000
 20
2.739
 11
28.250
 21
-2.761
  0
LINE
  8
0
 10
28.500
 20
2.761
 11
28.750
 21
-2.739
  0
ARC
  8
0
 10
28.500
 20
-2.750
 40
0.250
 50
-177.397
 51
2.603
  0
LINE
  8
0
 10
28.500
 20
2.761
 11
28.500
 21
2.756
  0
LINE
  8
0
 10
28.750
 20
-2.761
 11
28.750
 21
-2.756
  0
ARC
  8
0
 10
28.750
 20
2.750
 40
0.250
 50
2.603
 51
-177.397
  0
LINE
  8
0
 10
28.500
 20
2.739
 11
28.750
 21
-2.761
  0
LINE
  8
0
 10
29.000
 20
2.761
 11
29.250
 21
-2.739
  0
ARC
  8
0
 10
29.000
 20
-2.750
 40
0.250
 50
-177.397
 51
2.603
  0
LINE
  8
0
 10
29.000
 20
2.761
 11
29.000
 21
2.756
  0
LINE
  8
0
 10
29.250
 20
-2.761
 11
29.250
 21
-2.756
  0
ARC
  8
0
 10
29.250
 20
2.750
 40
0.250
 50
2.603
 51
-177.397
  0
LINE
  8
0
 10
29.000
 20
2.739
 11
29.250
 21
-2.761
  0
LINE
  8
0
 10
29.500
 20
2.761
 11
29.750
 21
-2.739
  0
ARC
  8
0
 10
29.500
 20
-2.750
 40
0.250
 50
-177.397
 51
2.603
  0
LINE
  8
0
 10
29.500
 20
2.761
 11
29.500
 21
2.756
  0
LINE
  8
0
 10
29.750
 20
-2.761
 11
29.750
 21
-2.756
  0
ARC
  8
0
 10
29.750
 20
2.750
 40
0.250
 50
2.603
 51
-177.397
  0
LINE
  8
0
 10
29.500
 20
2.739
 11
29.750
 21
-2.761
  0
LINE
  8
0
 10
30.000
 20
2.761
 11
30.250
 21
-2.739
  0
ARC
  8
0
 10
30.000
 20
-2.750
 40
0.250
 50
-177.397
 51
2.603
  0
LINE
  8
0
 10
30.000
 20
2.761
 11
30.000
 21
2.756
  0
LINE
  8
0
 10
30.250
 20
-2.761
 11
30.250
 21
-2.756
  0
ARC
  8
0
 10
30.250
 20
2.750
 40
0.250
 50
2.603
 51
-177.397
  0
LINE
  8
0
 10
30.000
 20
2.739
 11
30.250
 21
-2.761
  0
LINE
  8
0
 10
30.500
 20
2.761
 11
30.750
 21
-2.739
  0
ARC
  8
0
 10
30.500
 20
-2.750
 40
0.250
 50
-177.397
 51
2.603
  0
LINE
  8
0
 10
30.500
 20
2.761
 11
30.500
 21
2.756
  0
LINE
  8
0
 10
30.750
 20
-2.761
 11
30.750
 21
-2.756
  0
ARC
  8
0
 10
30.750
 20
2.750
 40
0.250
 50
2.603
 51
-177.397
  0
LINE
  8
0
 10
30.500
 20
2.739
 11
30.750
 21
-2.761
  0
LINE
  8
0
 10
31.000
 20
2.761
 11
31.250
 21
-2.739
  0
ARC
  8
0
 10
31.000
 20
-2.750
 40
0.250
 50
-177.397
 51
2.603
  0
LINE
  8
0
 10
31.000
 20
2.761
 11
31.000
 21
2.756
  0
LINE
  8
0
 10
31.250
 20
-2.761
 11
31.250
 21
-2.756
  0
ARC
  8
0
 10
31.250
 20
2.750
 40
0.250
 50
2.603
 51
-177.397
  0
LINE
  8
0
 10
31.000
 20
2.739
 11
31.250
 21
-2.761
  0
LINE
  8
0
 10
31.500
 20
2.761
 11
31.750
 21
-2.739
  0
ARC
  8
0
 10
31.500
 20
-2.750
 40
0.250
 50
-177.397
 51
2.603
  0
LINE
  8
0
 10
31.500
 20
2.761
 11
31.500
 21
2.756
  0
LINE
  8
0
 10
31.750
 20
-2.761
 11
31.750
 21
-2.756
  0
ARC
  8
0
 10
31.750
 20
2.750
 40
0.250
 50
2.603
 51
-177.397
  0
LINE
  8
0
 10
31.500
 20
2.739
 11
31.750
 21
-2.761
  0
LINE
  8
0
 10
32.000
 20
2.761
 11
32.250
 21
-2.739
  0
ARC
  8
0
 10
32.000
 20
-2.750
 40
0.250
 50
-177.397
 51
2.603
  0
LINE
  8
0
 10
32.000
 20
2.761
 11
32.000
 21
2.756
  0
LINE
  8
0
 10
32.250
 20
-2.761
 11
32.250
 21
-2.756
  0
ARC
  8
0
 10
32.250
 20
2.750
 40
0.250
 50
2.603
 51
-177.397
  0
LINE
  8
0
 10
32.000
 20
2.739
 11
32.250
 21
-2.761
  0
LINE
  8
0
 10
32.500
 20
2.761
 11
32.750
 21
-2.739
  0
ARC
  8
0
 10
32.500
 20
-2.750
 40
0.250
 50
-177.397
 51
2.603
  0
LINE
  8
0
 10
32.500
 20
2.761
 11
32.500
 21
2.756
  0
LINE
  8
0
 10
32.750
 20
-2.761
 11
32.750
 21
-2.756
  0
ARC
  8
0
 10
32.750
 20
2.750
 40
0.250
 50
2.603
 51
-177.397
  0
LINE
  8
0
 10
32.500
 20
2.739
 11
32.750
 21
-2.761
  0
LINE
  8
0
 10
33.000
 20
2.761
 11
33.250
 21
-2.739
  0
ARC
  8
0
 10
33.000
 20
-2.750
 40
0.250
 50
-177.397
 51
2.603
  0
LINE
  8
0
 10
33.000
 20
2.761
 11
33.000
 21
2.756
  0
LINE
  8
0
 10
33.250
 20
-2.761
 11
33.250
 21
-2.756
  0
ARC
  8
0
 10
33.250
 20
2.750
 40
0.250
 50
2.603
 51
-177.397
  0
LINE
  8
0
 10
33.000
 20
2.739
 11
33.250
 21
-2.761
  0
LINE
  8
0
 10
33.500
 20
2.761
 11
33.750
 21
-2.739
  0
ARC
  8
0
 10
33.500
 20
-2.750
 40
0.250
 50
-177.397
 51
2.603
  0
LINE
  8
0
 10
33.500
 20
2.761
 11
33.500
 21
2.756
  0
LINE
  8
0
 10
33.750
 20
-2.761
 11
33.750
 21
-2.756
  0
ARC
  8
0
 10
33.750
 20
2.750
 40
0.250
 50
2.603
 51
-177.397
  0
LINE
  8
0
 10
33.500
 20
2.739
 11
33.750
 21
-2.761
  0
LINE
  8
0
 10
34.000
 20
2.761
 11
34.250
 21
-2.739
  0
ARC
  8
0
 10
34.000
 20
-2.750
 40
0.250
 50
-177.397
 51
2.603
  0
LINE
  8
0
 10
34.000
 20
2.761
 11
34.000
 21
2.756
  0
LINE
  8
0
 10
34.250
 20
-2.761
 11
34.250
 21
-2.756
  0
ARC
  8
0
 10
34.250
 20
2.750
 40
0.250
 50
2.603
 51
-177.397
  0
LINE
  8
0
 10
34.000
 20
2.739
 11
34.250
 21
-2.761
  0
LINE
  8
0
 10
34.500
 20
2.761
 11
34.750
 21
-2.739
  0
ARC
  8
0
 10
34.500
 20
-2.750
 40
0.250
 50
-177.397
 51
2.603
  0
LINE
  8
0
 10
34.500
 20
2.761
 11
34.500
 21
2.756
  0
LINE
  8
0
 10
34.750
 20
-2.761
 11
34.750
 21
-2.756
  0
ARC
  8
0
 10
34.750
 20
2.750
 40
0.250
 50
2.603
 51
-177.397
  0
LINE
  8
0
 10
34.500
 20
2.739
 11
34.750
 21
-2.761
  0
LINE
  8
0
 10
35.000
 20
2.761
 11
35.250
 21
-2.739
  0
ARC
  8
0
 10
35.000
 20
-2.750
 40
0.250
 50
-177.397
 51
2.603
  0
LINE
  8
0
 10
35.000
 20
2.761
 11
35.000
 21
2.756
  0
LINE
  8
0
 10
35.250
 20
-2.761
 11
35.250
 21
-2.756
  0
ARC
  8
0
 10
35.250
 20
2.750
 40
0.250
 50
2.603
 51
-177.397
  0
LINE
  8
0
 10
35.000
 20
2.739
 11
35.250
 21
-2.761
  0
LINE
  8
0
 10
35.500
 20
2.761
 11
35.750
 21
-2.739
  0
ARC
  8
0
 10
35.500
 20
-2.750
 40
0.250
 50
-177.397
 51
2.603
  0
LINE
  8
0
 10
35.500
 20
2.761
 11
35.500
 21
2.756
  0
LINE
  8
0
 10
35.750
 20
-2.761
 11
35.750
 21
-2.756
  0
ARC
  8
0
 10
35.750
 20
2.750
 40
0.250
 50
2.603
 51
-177.397
  0
LINE
  8
0
 10
35.500
 20
2.739
 11
35.750
 21
-2.761
  0
LINE
  8
0
 10
36.000
 20
2.761
 11
36.250
 21
-2.739
  0
ARC
  8
0
 10
36.000
 20
-2.750
 40
0.250
 50
-177.397
 51
2.603
  0
LINE
  8
0
 10
36.000
 20
2.761
 11
36.000
 21
2.756
  0
LINE
  8
0
 10
36.250
 20
-2.761
 11
36.250
 21
-2.756
  0
ARC
  8
0
 10
36.250
 20
2.750
 40
0.250
 50
2.603
 51
-177.397
  0
LINE
  8
0
 10
36.000
 20
2.739
 11
36.250
 21
-2.761
  0
LINE
  8
0
 10
36.500
 20
2.761
 11
36.750
 21
-2.739
  0
ARC
  8
0
 10
36.500
 20
-2.750
 40
0.250
 50
-177.397
 51
2.603
  0
LINE
  8
0
 10
36.500
 20
2.761
 11
36.500
 21
2.756
  0
LINE
  8
0
 10
36.750
 20
-2.761
 11
36.750
 21
-2.756
  0
ARC
  8
0
 10
36.750
 20
2.750
 40
0.250
 50
2.603
 51
-177.397
  0
LINE
  8
0
 10
36.500
 20
2.739
 11
36.750
 21
-2.761
  0
LINE
  8
0
 10
37.000
 20
2.761
 11
37.250
 21
-2.739
  0
ARC
  8
0
 10
37.000
 20
-2.750
 40
0.250
 50
-177.397
 51
2.603
  0
LINE
  8
0
 10
37.000
 20
2.761
 11
37.000
 21
2.756
  0
LINE
  8
0
 10
37.250
 20
-2.761
 11
37.250
 21
-2.756
  0
ARC
  8
0
 10
37.250
 20
2.750
 40
0.250
 50
2.603
 51
-177.397
  0
LINE
  8
0
 10
37.000
 20
2.739
 11
37.250
 21
-2.761
  0
LINE
  8
0
 10
37.500
 20
2.761
 11
37.750
 21
-2.739
  0
ARC
  8
0
 10
37.500
 20
-2.750
 40
0.250
 50
-177.397
 51
2.603
  0
LINE
  8
0
 10
37.500
 20
2.761
 11
37.500
 21
2.756
  0
LINE
  8
0
 10
37.750
 20
-2.761
 11
37.750
 21
-2.756
  0
ARC
  8
0
 10
37.750
 20
2.750
 40
0.250
 50
2.603
 51
-177.397
  0
LINE
  8
0
 10
37.500
 20
2.739
 11
37.750
 21
-2.761
  0
LINE
  8
0
 10
38.000
 20
2.761
 11
38.250
 21
-2.739
  0
ARC
  8
0
 10
38.000
 20
-2.750
 40
0.250
 50
-177.397
 51
2.603
  0
LINE
  8
0
 10
38.000
 20
2.761
 11
38.000
 21
2.756
  0
LINE
  8
0
 10
38.250
 20
-2.761
 11
38.250
 21
-2.756
  0
ARC
  8
0
 10
38.250
 20
2.750
 40
0.250
 50
2.603
 51
-177.397
  0
LINE
  8
0
 10
38.000
 20
2.739
 11
38.250
 21
-2.761
  0
LINE
  8
0
 10
38.500
 20
2.761
 11
38.750
 21
-2.739
  0
ARC
  8
0
 10
38.500
 20
-2.750
 40
0.250
 50
-177.397
 51
2.603
  0
LINE
  8
0
 10
38.500
 20
2.761
 11
38.500
 21
2.756
  0
LINE
  8
0
 10
38.750
 20
-2.761
 11
38.750
 21
-2.756
  0
ARC
  8
0
 10
38.750
 20
2.750
 40
0.250
 50
2.603
 51
-177.397
  0
LINE
  8
0
 10
38.500
 20
2.739
 11
38.750
 21
-2.761
  0
LINE
  8
0
 10
39.000
 20
2.761
 11
39.250
 21
-2.739
  0
ARC
  8
0
 10
39.000
 20
-2.750
 40
0.250
 50
-177.397
 51
2.603
  0
LINE
  8
0
 10
39.000
 20
2.761
 11
39.000
 21
2.756
  0
LINE
  8
0
 10
39.250
 20
-2.761
 11
39.250
 21
-2.756
  0
ARC
  8
0
 10
39.250
 20
2.750
 40
0.250
 50
2.603
 51
-177.397
  0
LINE
  8
0
 10
39.000
 20
2.739
 11
39.250
 21
-2.761
  0
LINE
  8
0
 10
39.500
 20
2.761
 11
39.750
 21
-2.739
  0
ARC
  8
0
 10
39.500
 20
-2.750
 40
0.250
 50
-177.397
 51
2.603
  0
LINE
  8
0
 10
39.500
 20
2.761
 11
39.500
 21
2.756
  0
LINE
  8
0
 10
39.750
 20
-2.761
 11
39.750
 21
-2.756
  0
ARC
  8
0
 10
39.750
 20
2.750
 40
0.250
 50
2.603
 51
-177.397
  0
LINE
  8
0
 10
39.500
 20
2.739
 11
39.750
 21
-2.761
  0
LINE
  8
0
 10
40.000
 20
2.761
 11
40.250
 21
-2.739
  0
ARC
  8
0
 10
40.000
 20
-2.750
 40
0.250
 50
-177.397
 51
2.603
  0
LINE
  8
0
 10
40.000
 20
2.761
 11
40.000
 21
2.756
  0
LINE
  8
0
 10
40.250
 20
-2.761
 11
40.250
 21
-2.756
  0
ARC
  8
0
 10
40.250
 20
2.750
 40
0.250
 50
2.603
 51
-177.397
  0
LINE
  8
0
 10
40.000
 20
2.739
 11
40.250
 21
-2.761
  0
LINE
  8
0
 10
40.500
 20
2.761
 11
40.750
 21
-2.739
  0
ARC
  8
0
 10
40.500
 20
-2.750
 40
0.250
 50
-177.397
 51
2.603
  0
LINE
  8
0
 10
40.500
 20
2.761
 11
40.500
 21
2.756
  0
LINE
  8
0
 10
40.750
 20
-2.761
 11
40.750
 21
-2.756
  0
ARC
  8
0
 10
40.750
 20
2.750
 40
0.250
 50
2.603
 51
-177.397
  0
LINE
  8
0
 10
40.500
 20
2.739
 11
40.750
 21
-2.761
  0
LINE
  8
0
 10
41.000
 20
2.761
 11
41.250
 21
-2.739
  0
ARC
  8
0
 10
41.000
 20
-2.750
 40
0.250
 50
-177.397
 51
2.603
  0
LINE
  8
0
 10
41.000
 20
2.761
 11
41.000
 21
2.756
  0
LINE
  8
0
 10
41.250
 20
-2.761
 11
41.250
 21
-2.756
  0
ARC
  8
0
 10
41.250
 20
2.750
 40
0.250
 50
2.603
 51
-177.397
  0
LINE
  8
0
 10
41.000
 20
2.739
 11
41.250
 21
-2.761
  0
LINE
  8
0
 10
41.500
 20
2.761
 11
41.750
 21
-2.739
  0
ARC
  8
0
 10
41.500
 20
-2.750
 40
0.250
 50
-177.397
 51
2.603
  0
LINE
  8
0
 10
41.500
 20
2.761
 11
41.500
 21
2.756
  0
LINE
  8
0
 10
41.750
 20
-2.761
 11
41.750
 21
-2.756
  0
ARC
  8
0
 10
41.750
 20
2.750
 40
0.250
 50
2.603
 51
-177.397
  0
LINE
  8
0
 10
41.500
 20
2.739
 11
41.750
 21
-2.761
  0
LINE
  8
0
 10
42.000
 20
2.761
 11
42.250
 21
-2.739
  0
ARC
  8
0
 10
42.000
 20
-2.750
 40
0.250
 50
-177.397
 51
2.603
  0
LINE
  8
0
 10
42.000
 20
2.761
 11
42.000
 21
2.756
  0
LINE
  8
0
 10
42.250
 20
-2.761
 11
42.250
 21
-2.756
  0
ARC
  8
0
 10
42.250
 20
2.750
 40
0.250
 50
2.603
 51
-177.397
  0
LINE
  8
0
 10
42.000
 20
2.739
 11
42.250
 21
-2.761
  0
LINE
  8
0
 10
42.500
 20
2.761
 11
42.750
 21
-2.739
  0
ARC
  8
0
 10
42.500
 20
-2.750
 40
0.250
 50
-177.397
 51
2.603
  0
LINE
  8
0
 10
42.500
 20
2.761
 11
42.500
 21
2.756
  0
LINE
  8
0
 10
42.750
 20
-2.761
 11
42.750
 21
-2.756
  0
ARC
  8
0
 10
42.750
 20
2.750
 40
0.250
 50
2.603
 51
-177.397
  0
LINE
  8
0
 10
42.500
 20
2.739
 11
42.750
 21
-2.761
  0
LINE
  8
0
 10
43.000
 20
2.761
 11
43.250
 21
-2.739
  0
ARC
  8
0
 10
43.000
 20
-2.750
 40
0.250
 50
-177.397
 51
2.603
  0
LINE
  8
0
 10
43.000
 20
2.761
 11
43.000
 21
2.756
  0
LINE
  8
0
 10
43.250
 20
-2.761
 11
43.250
 21
-2.756
  0
ARC
  8
0
 10
43.250
 20
2.750
 40
0.250
 50
2.603
 51
-177.397
  0
LINE
  8
0
 10
43.000
 20
2.739
 11
43.250
 21
-2.761
  0
LINE
  8
0
 10
43.500
 20
2.761
 11
43.750
 21
-2.739
  0
ARC
  8
0
 10
43.500
 20
-2.750
 40
0.250
 50
-177.397
 51
2.603
  0
LINE
  8
0
 10
43.500
 20
2.761
 11
43.500
 21
2.756
  0
LINE
  8
0
 10
43.750
 20
-2.761
 11
43.750
 21
-2.756
  0
ARC
  8
0
 10
43.750
 20
2.750
 40
0.250
 50
2.603
 51
-177.397
  0
LINE
  8
0
 10
43.500
 20
2.739
 11
43.750
 21
-2.761
  0
LINE
  8
0
 10
44.000
 20
2.761
 11
44.250
 21
-2.739
  0
ARC
  8
0
 10
44.000
 20
-2.750
 40
0.250
 50
-177.397
 51
2.603
  0
LINE
  8
0
 10
44.000
 20
2.761
 11
44.000
 21
2.756
  0
LINE
  8
0
 10
44.250
 20
-2.761
 11
44.250
 21
-2.756
  0
ARC
  8
0
 10
44.250
 20
2.750
 40
0.250
 50
2.603
 51
-177.397
  0
LINE
  8
0
 10
44.000
 20
2.739
 11
44.219
 21
-2.074
  0
LINE
  8
0
 10
44.500
 20
2.761
 11
44.718
 21
-2.051
  0
ARC
  8
0
 10
44.469
 20
-2.063
 40
0.250
 50
-177.397
 51
2.603
  0
LINE
  8
0
 10
44.719
 20
-2.066
 11
44.750
 21
0.037
  0
ARC
  8
0
 10
47.250
 20
0.000
 40
2.500
 50
-112.500
 51
179.141
  0
ARC
  8
0
 10
47.250
 20
0.000
 40
3.000
 50
-112.500
 51
153.531
  0
LINE
  8
0
 10
46.102
 20
-2.772
 11
46.293
 21
-2.310
  0
ENDSEC
  0
EOF
