  0
SECTION
  2
ENTITIES
  0
ARC
  8
0
 10
2.400
 20
0.000
 40
2.400
 50
67.500
 51
-1.048
  0
ARC
  8
0
 10
2.400
 20
0.000
 40
3.000
 50
67.500
 51
-28.767
  0
LINE
  8
0
 10
3.318
 20
2.217
 11
3.548
 21
2.772
  0
LINE
  8
0
 10
4.800
 20
-0.044
 11
4.838
 21
2.030
  0
ARC
  8
0
 10
5.138
 20
2.025
 40
0.300
 50
3.180
 51
-176.820
  0
LINE
  8
0
 10
4.838
 20
2.008
 11
5.100
 21
-2.717
  0
LINE
  8
0
 10
5.437
 20
2.042
 11
5.700
 21
-2.683
  0
ARC
  8
0
 10
5.400
 20
-2.700
 40
0.300
 50
-176.820
 51
3.180
  0
LINE
  8
0
 10
5.400
 20
2.717
 11
5.400
 21
2.708
  0
LINE
  8
0
 10
5.700
 20
-2.717
 11
5.700
 21
-2.708
  0
ARC
  8
0
 10
5.700
 20
2.700
 40
0.300
 50
3.180
 51
-176.820
  0
LINE
  8
0
 10
5.400
 20
2.683
 11
5.700
 21
-2.717
  0
LINE
  8
0
 10
6.000
 20
2.717
 11
6.300
 21
-2.683
  0
ARC
  8
0
 10
6.000
 20
-2.700
 40
0.300
 50
-176.820
 51
3.180
  0
LINE
  8
0
 10
6.000
 20
2.717
 11
6.000
 21
2.708
  0
LINE
  8
0
 10
6.300
 20
-2.717
 11
6.300
 21
-2.708
  0
ARC
  8
0
 10
6.300
 20
2.700
 40
0.300
 50
3.180
 51
-176.820
  0
LINE
  8
0
 10
6.000
 20
2.683
 11
6.300
 21
-2.717
  0
LINE
  8
0
 10
6.600
 20
2.717
 11
6.900
 21
-2.683
  0
ARC
  8
0
 10
6.600
 20
-2.700
 40
0.300
 50
-176.820
 51
3.180
  0
LINE
  8
0
 10
6.600
 20
2.717
 11
6.600
 21
2.708
  0
LINE
  8
0
 10
6.900
 20
-2.717
 11
6.900
 21
-2.708
  0
ARC
  8
0
 10
6.900
 20
2.700
 40
0.300
 50
3.180
 51
-176.820
  0
LINE
  8
0
 10
6.600
 20
2.683
 11
6.900
 21
-2.717
  0
LINE
  8
0
 10
7.200
 20
2.717
 11
7.500
 21
-2.683
  0
ARC
  8
0
 10
7.200
 20
-2.700
 40
0.300
 50
-176.820
 51
3.180
  0
LINE
  8
0
 10
7.200
 20
2.717
 11
7.200
 21
2.708
  0
LINE
  8
0
 10
7.500
 20
-2.717
 11
7.500
 21
-2.708
  0
ARC
  8
0
 10
7.500
 20
2.700
 40
0.300
 50
3.180
 51
-176.820
  0
LINE
  8
0
 10
7.200
 20
2.683
 11
7.500
 21
-2.717
  0
LINE
  8
0
 10
7.800
 20
2.717
 11
8.100
 21
-2.683
  0
ARC
  8
0
 10
7.800
 20
-2.700
 40
0.300
 50
-176.820
 51
3.180
  0
LINE
  8
0
 10
7.800
 20
2.717
 11
7.800
 21
2.708
  0
LINE
  8
0
 10
8.100
 20
-2.717
 11
8.100
 21
-2.708
  0
ARC
  8
0
 10
8.100
 20
2.700
 40
0.300
 50
3.180
 51
-176.820
  0
LINE
  8
0
 10
7.800
 20
2.683
 11
8.100
 21
-2.717
  0
LINE
  8
0
 10
8.400
 20
2.717
 11
8.700
 21
-2.683
  0
ARC
  8
0
 10
8.400
 20
-2.700
 40
0.300
 50
-176.820
 51
3.180
  0
LINE
  8
0
 10
8.400
 20
2.717
 11
8.400
 21
2.708
  0
LINE
  8
0
 10
8.700
 20
-2.717
 11
8.700
 21
-2.708
  0
ARC
  8
0
 10
8.700
 20
2.700
 40
0.300
 50
3.180
 51
-176.820
  0
LINE
  8
0
 10
8.400
 20
2.683
 11
8.700
 21
-2.717
  0
LINE
  8
0
 10
9.000
 20
2.717
 11
9.300
 21
-2.683
  0
ARC
  8
0
 10
9.000
 20
-2.700
 40
0.300
 50
-176.820
 51
3.180
  0
LINE
  8
0
 10
9.000
 20
2.717
 11
9.000
 21
2.708
  0
LINE
  8
0
 10
9.300
 20
-2.717
 11
9.300
 21
-2.708
  0
ARC
  8
0
 10
9.300
 20
2.700
 40
0.300
 50
3.180
 51
-176.820
  0
LINE
  8
0
 10
9.000
 20
2.683
 11
9.300
 21
-2.717
  0
LINE
  8
0
 10
9.600
 20
2.717
 11
9.900
 21
-2.683
  0
ARC
  8
0
 10
9.600
 20
-2.700
 40
0.300
 50
-176.820
 51
3.180
  0
LINE
  8
0
 10
9.600
 20
2.717
 11
9.600
 21
2.708
  0
LINE
  8
0
 10
9.900
 20
-2.717
 11
9.900
 21
-2.708
  0
ARC
  8
0
 10
9.900
 20
2.700
 40
0.300
 50
3.180
 51
-176.820
  0
LINE
  8
0
 10
9.600
 20
2.683
 11
9.900
 21
-2.717
  0
LINE
  8
0
 10
10.200
 20
2.717
 11
10.500
 21
-2.683
  0
ARC
  8
0
 10
10.200
 20
-2.700
 40
0.300
 50
-176.820
 51
3.180
  0
LINE
  8
0
 10
10.200
 20
2.717
 11
10.200
 21
2.708
  0
LINE
  8
0
 10
10.500
 20
-2.717
 11
10.500
 21
-2.708
  0
ARC
  8
0
 10
10.500
 20
2.700
 40
0.300
 50
3.180
 51
-176.820
  0
LINE
  8
0
 10
10.200
 20
2.683
 11
10.500
 21
-2.717
  0
LINE
  8
0
 10
10.800
 20
2.717
 11
11.100
 21
-2.683
  0
ARC
  8
0
 10
10.800
 20
-2.700
 40
0.300
 50
-176.820
 51
3.180
  0
LINE
  8
0
 10
10.800
 20
2.717
 11
10.800
 21
2.708
  0
LINE
  8
0
 10
11.100
 20
-2.717
 11
11.100
 21
-2.708
  0
ARC
  8
0
 10
11.100
 20
2.700
 40
0.300
 50
3.180
 51
-176.820
  0
LINE
  8
0
 10
10.800
 20
2.683
 11
11.100
 21
-2.717
  0
LINE
  8
0
 10
11.400
 20
2.717
 11
11.700
 21
-2.683
  0
ARC
  8
0
 10
11.400
 20
-2.700
 40
0.300
 50
-176.820
 51
3.180
  0
LINE
  8
0
 10
11.400
 20
2.717
 11
11.400
 21
2.708
  0
LINE
  8
0
 10
11.700
 20
-2.717
 11
11.700
 21
-2.708
  0
ARC
  8
0
 10
11.700
 20
2.700
 40
0.300
 50
3.180
 51
-176.820
  0
LINE
  8
0
 10
11.400
 20
2.683
 11
11.700
 21
-2.717
  0
LINE
  8
0
 10
12.000
 20
2.717
 11
12.300
 21
-2.683
  0
ARC
  8
0
 10
12.000
 20
-2.700
 40
0.300
 50
-176.820
 51
3.180
  0
LINE
  8
0
 10
12.000
 20
2.717
 11
12.000
 21
2.708
  0
LINE
  8
0
 10
12.300
 20
-2.717
 11
12.300
 21
-2.708
  0
ARC
  8
0
 10
12.300
 20
2.700
 40
0.300
 50
3.180
 51
-176.820
  0
LINE
  8
0
 10
12.000
 20
2.683
 11
12.300
 21
-2.717
  0
LINE
  8
0
 10
12.600
 20
2.717
 11
12.900
 21
-2.683
  0
ARC
  8
0
 10
12.600
 20
-2.700
 40
0.300
 50
-176.820
 51
3.180
  0
LINE
  8
0
 10
12.600
 20
2.717
 11
12.600
 21
2.708
  0
LINE
  8
0
 10
12.900
 20
-2.717
 11
12.900
 21
-2.708
  0
ARC
  8
0
 10
12.900
 20
2.700
 40
0.300
 50
3.180
 51
-176.820
  0
LINE
  8
0
 10
12.600
 20
2.683
 11
12.900
 21
-2.717
  0
LINE
  8
0
 10
13.200
 20
2.717
 11
13.500
 21
-2.683
  0
ARC
  8
0
 10
13.200
 20
-2.700
 40
0.300
 50
-176.820
 51
3.180
  0
LINE
  8
0
 10
13.200
 20
2.717
 11
13.200
 21
2.708
  0
LINE
  8
0
 10
13.500
 20
-2.717
 11
13.500
 21
-2.708
  0
ARC
  8
0
 10
13.500
 20
2.700
 40
0.300
 50
3.180
 51
-176.820
  0
LINE
  8
0
 10
13.200
 20
2.683
 11
13.500
 21
-2.717
  0
LINE
  8
0
 10
13.800
 20
2.717
 11
14.100
 21
-2.683
  0
ARC
  8
0
 10
13.800
 20
-2.700
 40
0.300
 50
-176.820
 51
3.180
  0
LINE
  8
0
 10
13.800
 20
2.717
 11
13.800
 21
2.708
  0
LINE
  8
0
 10
14.100
 20
-2.717
 11
14.100
 21
-2.708
  0
ARC
  8
0
 10
14.100
 20
2.700
 40
0.300
 50
3.180
 51
-176.820
  0
LINE
  8
0
 10
13.800
 20
2.683
 11
14.100
 21
-2.717
  0
LINE
  8
0
 10
14.400
 20
2.717
 11
14.700
 21
-2.683
  0
ARC
  8
0
 10
14.400
 20
-2.700
 40
0.300
 50
-176.820
 51
3.180
  0
LINE
  8
0
 10
14.400
 20
2.717
 11
14.400
 21
2.708
  0
LINE
  8
0
 10
14.700
 20
-2.717
 11
14.700
 21
-2.708
  0
ARC
  8
0
 10
14.700
 20
2.700
 40
0.300
 50
3.180
 51
-176.820
  0
LINE
  8
0
 10
14.400
 20
2.683
 11
14.663
 21
-2.042
  0
LINE
  8
0
 10
15.000
 20
2.717
 11
15.262
 21
-2.008
  0
ARC
  8
0
 10
14.963
 20
-2.025
 40
0.300
 50
-176.820
 51
3.180
  0
LINE
  8
0
 10
15.262
 20
-2.030
 11
15.300
 21
0.044
  0
ARC
  8
0
 10
17.700
 20
0.000
 40
2.400
 50
-112.500
 51
178.952
  0
ARC
  8
0
 10
17.700
 20
0.000
 40
3.000
 50
-112.500
 51
151.233
  0
LINE
  8
0
 10
16.552
 20
-2.772
 11
16.782
 21
-2.217
  0
ENDSEC
  0
EOF
