  0
SECTION
  2
ENTITIES
  0
ARC
  8
0
 10
2.300
 20
0.000
 40
2.300
 50
67.500
 51
-1.243
  0
ARC
  8
0
 10
2.300
 20
0.000
 40
3.000
 50
67.500
 51
-30.840
  0
LINE
  8
0
 10
3.180
 20
2.125
 11
3.448
 21
2.772
  0
LINE
  8
0
 10
4.599
 20
-0.050
 11
4.644
 21
1.995
  0
ARC
  8
0
 10
4.994
 20
1.988
 40
0.350
 50
3.778
 51
-176.222
  0
LINE
  8
0
 10
4.645
 20
1.964
 11
4.951
 21
-2.673
  0
LINE
  8
0
 10
5.343
 20
2.011
 11
5.649
 21
-2.627
  0
ARC
  8
0
 10
5.300
 20
-2.650
 40
0.350
 50
-176.222
 51
3.778
  0
LINE
  8
0
 10
5.301
 20
2.673
 11
5.300
 21
2.662
  0
LINE
  8
0
 10
5.649
 20
-2.673
 11
5.650
 21
-2.662
  0
ARC
  8
0
 10
5.650
 20
2.650
 40
0.350
 50
3.778
 51
-176.222
  0
LINE
  8
0
 10
5.301
 20
2.627
 11
5.651
 21
-2.673
  0
LINE
  8
0
 10
5.999
 20
2.673
 11
6.349
 21
-2.627
  0
ARC
  8
0
 10
6.000
 20
-2.650
 40
0.350
 50
-176.222
 51
3.778
  0
LINE
  8
0
 10
6.001
 20
2.673
 11
6.000
 21
2.662
  0
LINE
  8
0
 10
6.349
 20
-2.673
 11
6.350
 21
-2.662
  0
ARC
  8
0
 10
6.350
 20
2.650
 40
0.350
 50
3.778
 51
-176.222
  0
LINE
  8
0
 10
6.001
 20
2.627
 11
6.351
 21
-2.673
  0
LINE
  8
0
 10
6.699
 20
2.673
 11
7.049
 21
-2.627
  0
ARC
  8
0
 10
6.700
 20
-2.650
 40
0.350
 50
-176.222
 51
3.778
  0
LINE
  8
0
 10
6.701
 20
2.673
 11
6.700
 21
2.662
  0
LINE
  8
0
 10
7.049
 20
-2.673
 11
7.050
 21
-2.662
  0
ARC
  8
0
 10
7.050
 20
2.650
 40
0.350
 50
3.778
 51
-176.222
  0
LINE
  8
0
 10
6.701
 20
2.627
 11
7.051
 21
-2.673
  0
LINE
  8
0
 10
7.399
 20
2.673
 11
7.749
 21
-2.627
  0
ARC
  8
0
 10
7.400
 20
-2.650
 40
0.350
 50
-176.222
 51
3.778
  0
LINE
  8
0
 10
7.401
 20
2.673
 11
7.400
 21
2.662
  0
LINE
  8
0
 10
7.749
 20
-2.673
 11
7.750
 21
-2.662
  0
ARC
  8
0
 10
7.750
 20
2.650
 40
0.350
 50
3.778
 51
-176.222
  0
LINE
  8
0
 10
7.401
 20
2.627
 11
7.751
 21
-2.673
  0
LINE
  8
0
 10
8.099
 20
2.673
 11
8.449
 21
-2.627
  0
ARC
  8
0
 10
8.100
 20
-2.650
 40
0.350
 50
-176.222
 51
3.778
  0
LINE
  8
0
 10
8.101
 20
2.673
 11
8.100
 21
2.662
  0
LINE
  8
0
 10
8.449
 20
-2.673
 11
8.450
 21
-2.662
  0
ARC
  8
0
 10
8.450
 20
2.650
 40
0.350
 50
3.778
 51
-176.222
  0
LINE
  8
0
 10
8.101
 20
2.627
 11
8.451
 21
-2.673
  0
LINE
  8
0
 10
8.799
 20
2.673
 11
9.149
 21
-2.627
  0
ARC
  8
0
 10
8.800
 20
-2.650
 40
0.350
 50
-176.222
 51
3.778
  0
LINE
  8
0
 10
8.801
 20
2.673
 11
8.800
 21
2.662
  0
LINE
  8
0
 10
9.149
 20
-2.673
 11
9.150
 21
-2.662
  0
ARC
  8
0
 10
9.150
 20
2.650
 40
0.350
 50
3.778
 51
-176.222
  0
LINE
  8
0
 10
8.801
 20
2.627
 11
9.151
 21
-2.673
  0
LINE
  8
0
 10
9.499
 20
2.673
 11
9.849
 21
-2.627
  0
ARC
  8
0
 10
9.500
 20
-2.650
 40
0.350
 50
-176.222
 51
3.778
  0
LINE
  8
0
 10
9.501
 20
2.673
 11
9.500
 21
2.662
  0
LINE
  8
0
 10
9.849
 20
-2.673
 11
9.850
 21
-2.662
  0
ARC
  8
0
 10
9.850
 20
2.650
 40
0.350
 50
3.778
 51
-176.222
  0
LINE
  8
0
 10
9.501
 20
2.627
 11
9.851
 21
-2.673
  0
LINE
  8
0
 10
10.199
 20
2.673
 11
10.549
 21
-2.627
  0
ARC
  8
0
 10
10.200
 20
-2.650
 40
0.350
 50
-176.222
 51
3.778
  0
LINE
  8
0
 10
10.201
 20
2.673
 11
10.200
 21
2.662
  0
LINE
  8
0
 10
10.549
 20
-2.673
 11
10.550
 21
-2.662
  0
ARC
  8
0
 10
10.550
 20
2.650
 40
0.350
 50
3.778
 51
-176.222
  0
LINE
  8
0
 10
10.201
 20
2.627
 11
10.551
 21
-2.673
  0
LINE
  8
0
 10
10.899
 20
2.673
 11
11.249
 21
-2.627
  0
ARC
  8
0
 10
10.900
 20
-2.650
 40
0.350
 50
-176.222
 51
3.778
  0
LINE
  8
0
 10
10.901
 20
2.673
 11
10.900
 21
2.662
  0
LINE
  8
0
 10
11.249
 20
-2.673
 11
11.250
 21
-2.662
  0
ARC
  8
0
 10
11.250
 20
2.650
 40
0.350
 50
3.778
 51
-176.222
  0
LINE
  8
0
 10
10.901
 20
2.627
 11
11.251
 21
-2.673
  0
LINE
  8
0
 10
11.599
 20
2.673
 11
11.949
 21
-2.627
  0
ARC
  8
0
 10
11.600
 20
-2.650
 40
0.350
 50
-176.222
 51
3.778
  0
LINE
  8
0
 10
11.601
 20
2.673
 11
11.600
 21
2.662
  0
LINE
  8
0
 10
11.949
 20
-2.673
 11
11.950
 21
-2.662
  0
ARC
  8
0
 10
11.950
 20
2.650
 40
0.350
 50
3.778
 51
-176.222
  0
LINE
  8
0
 10
11.601
 20
2.627
 11
11.951
 21
-2.673
  0
LINE
  8
0
 10
12.299
 20
2.673
 11
12.649
 21
-2.627
  0
ARC
  8
0
 10
12.300
 20
-2.650
 40
0.350
 50
-176.222
 51
3.778
  0
LINE
  8
0
 10
12.301
 20
2.673
 11
12.300
 21
2.662
  0
LINE
  8
0
 10
12.649
 20
-2.673
 11
12.650
 21
-2.662
  0
ARC
  8
0
 10
12.650
 20
2.650
 40
0.350
 50
3.778
 51
-176.222
  0
LINE
  8
0
 10
12.301
 20
2.627
 11
12.651
 21
-2.673
  0
LINE
  8
0
 10
12.999
 20
2.673
 11
13.349
 21
-2.627
  0
ARC
  8
0
 10
13.000
 20
-2.650
 40
0.350
 50
-176.222
 51
3.778
  0
LINE
  8
0
 10
13.001
 20
2.673
 11
13.000
 21
2.662
  0
LINE
  8
0
 10
13.349
 20
-2.673
 11
13.350
 21
-2.662
  0
ARC
  8
0
 10
13.350
 20
2.650
 40
0.350
 50
3.778
 51
-176.222
  0
LINE
  8
0
 10
13.001
 20
2.627
 11
13.351
 21
-2.673
  0
LINE
  8
0
 10
13.699
 20
2.673
 11
14.049
 21
-2.627
  0
ARC
  8
0
 10
13.700
 20
-2.650
 40
0.350
 50
-176.222
 51
3.778
  0
LINE
  8
0
 10
13.701
 20
2.673
 11
13.700
 21
2.662
  0
LINE
  8
0
 10
14.049
 20
-2.673
 11
14.050
 21
-2.662
  0
ARC
  8
0
 10
14.050
 20
2.650
 40
0.350
 50
3.778
 51
-176.222
  0
LINE
  8
0
 10
13.701
 20
2.627
 11
14.051
 21
-2.673
  0
LINE
  8
0
 10
14.399
 20
2.673
 11
14.749
 21
-2.627
  0
ARC
  8
0
 10
14.400
 20
-2.650
 40
0.350
 50
-176.222
 51
3.778
  0
LINE
  8
0
 10
14.401
 20
2.673
 11
14.400
 21
2.662
  0
LINE
  8
0
 10
14.749
 20
-2.673
 11
14.750
 21
-2.662
  0
ARC
  8
0
 10
14.750
 20
2.650
 40
0.350
 50
3.778
 51
-176.222
  0
LINE
  8
0
 10
14.401
 20
2.627
 11
14.751
 21
-2.673
  0
LINE
  8
0
 10
15.099
 20
2.673
 11
15.449
 21
-2.627
  0
ARC
  8
0
 10
15.100
 20
-2.650
 40
0.350
 50
-176.222
 51
3.778
  0
LINE
  8
0
 10
15.101
 20
2.673
 11
15.100
 21
2.662
  0
LINE
  8
0
 10
15.449
 20
-2.673
 11
15.450
 21
-2.662
  0
ARC
  8
0
 10
15.450
 20
2.650
 40
0.350
 50
3.778
 51
-176.222
  0
LINE
  8
0
 10
15.101
 20
2.627
 11
15.451
 21
-2.673
  0
LINE
  8
0
 10
15.799
 20
2.673
 11
16.149
 21
-2.627
  0
ARC
  8
0
 10
15.800
 20
-2.650
 40
0.350
 50
-176.222
 51
3.778
  0
LINE
  8
0
 10
15.801
 20
2.673
 11
15.800
 21
2.662
  0
LINE
  8
0
 10
16.149
 20
-2.673
 11
16.150
 21
-2.662
  0
ARC
  8
0
 10
16.150
 20
2.650
 40
0.350
 50
3.778
 51
-176.222
  0
LINE
  8
0
 10
15.801
 20
2.627
 11
16.151
 21
-2.673
  0
LINE
  8
0
 10
16.499
 20
2.673
 11
16.849
 21
-2.627
  0
ARC
  8
0
 10
16.500
 20
-2.650
 40
0.350
 50
-176.222
 51
3.778
  0
LINE
  8
0
 10
16.501
 20
2.673
 11
16.500
 21
2.662
  0
LINE
  8
0
 10
16.849
 20
-2.673
 11
16.850
 21
-2.662
  0
ARC
  8
0
 10
16.850
 20
2.650
 40
0.350
 50
3.778
 51
-176.222
  0
LINE
  8
0
 10
16.501
 20
2.627
 11
16.851
 21
-2.673
  0
LINE
  8
0
 10
17.199
 20
2.673
 11
17.549
 21
-2.627
  0
ARC
  8
0
 10
17.200
 20
-2.650
 40
0.350
 50
-176.222
 51
3.778
  0
LINE
  8
0
 10
17.201
 20
2.673
 11
17.200
 21
2.662
  0
LINE
  8
0
 10
17.549
 20
-2.673
 11
17.550
 21
-2.662
  0
ARC
  8
0
 10
17.550
 20
2.650
 40
0.350
 50
3.778
 51
-176.222
  0
LINE
  8
0
 10
17.201
 20
2.627
 11
17.551
 21
-2.673
  0
LINE
  8
0
 10
17.899
 20
2.673
 11
18.249
 21
-2.627
  0
ARC
  8
0
 10
17.900
 20
-2.650
 40
0.350
 50
-176.222
 51
3.778
  0
LINE
  8
0
 10
17.901
 20
2.673
 11
17.900
 21
2.662
  0
LINE
  8
0
 10
18.249
 20
-2.673
 11
18.250
 21
-2.662
  0
ARC
  8
0
 10
18.250
 20
2.650
 40
0.350
 50
3.778
 51
-176.222
  0
LINE
  8
0
 10
17.901
 20
2.627
 11
18.251
 21
-2.673
  0
LINE
  8
0
 10
18.599
 20
2.673
 11
18.949
 21
-2.627
  0
ARC
  8
0
 10
18.600
 20
-2.650
 40
0.350
 50
-176.222
 51
3.778
  0
LINE
  8
0
 10
18.601
 20
2.673
 11
18.600
 21
2.662
  0
LINE
  8
0
 10
18.949
 20
-2.673
 11
18.950
 21
-2.662
  0
ARC
  8
0
 10
18.950
 20
2.650
 40
0.350
 50
3.778
 51
-176.222
  0
LINE
  8
0
 10
18.601
 20
2.627
 11
18.951
 21
-2.673
  0
LINE
  8
0
 10
19.299
 20
2.673
 11
19.649
 21
-2.627
  0
ARC
  8
0
 10
19.300
 20
-2.650
 40
0.350
 50
-176.222
 51
3.778
  0
LINE
  8
0
 10
19.301
 20
2.673
 11
19.300
 21
2.662
  0
LINE
  8
0
 10
19.649
 20
-2.673
 11
19.650
 21
-2.662
  0
ARC
  8
0
 10
19.650
 20
2.650
 40
0.350
 50
3.778
 51
-176.222
  0
LINE
  8
0
 10
19.301
 20
2.627
 11
19.651
 21
-2.673
  0
LINE
  8
0
 10
19.999
 20
2.673
 11
20.349
 21
-2.627
  0
ARC
  8
0
 10
20.000
 20
-2.650
 40
0.350
 50
-176.222
 51
3.778
  0
LINE
  8
0
 10
20.001
 20
2.673
 11
20.000
 21
2.662
  0
LINE
  8
0
 10
20.349
 20
-2.673
 11
20.350
 21
-2.662
  0
ARC
  8
0
 10
20.350
 20
2.650
 40
0.350
 50
3.778
 51
-176.222
  0
LINE
  8
0
 10
20.001
 20
2.627
 11
20.351
 21
-2.673
  0
LINE
  8
0
 10
20.699
 20
2.673
 11
21.049
 21
-2.627
  0
ARC
  8
0
 10
20.700
 20
-2.650
 40
0.350
 50
-176.222
 51
3.778
  0
LINE
  8
0
 10
20.701
 20
2.673
 11
20.700
 21
2.662
  0
LINE
  8
0
 10
21.049
 20
-2.673
 11
21.050
 21
-2.662
  0
ARC
  8
0
 10
21.050
 20
2.650
 40
0.350
 50
3.778
 51
-176.222
  0
LINE
  8
0
 10
20.701
 20
2.627
 11
21.051
 21
-2.673
  0
LINE
  8
0
 10
21.399
 20
2.673
 11
21.749
 21
-2.627
  0
ARC
  8
0
 10
21.400
 20
-2.650
 40
0.350
 50
-176.222
 51
3.778
  0
LINE
  8
0
 10
21.401
 20
2.673
 11
21.400
 21
2.662
  0
LINE
  8
0
 10
21.749
 20
-2.673
 11
21.750
 21
-2.662
  0
ARC
  8
0
 10
21.750
 20
2.650
 40
0.350
 50
3.778
 51
-176.222
  0
LINE
  8
0
 10
21.401
 20
2.627
 11
21.751
 21
-2.673
  0
LINE
  8
0
 10
22.099
 20
2.673
 11
22.449
 21
-2.627
  0
ARC
  8
0
 10
22.100
 20
-2.650
 40
0.350
 50
-176.222
 51
3.778
  0
LINE
  8
0
 10
22.101
 20
2.673
 11
22.100
 21
2.662
  0
LINE
  8
0
 10
22.449
 20
-2.673
 11
22.450
 21
-2.662
  0
ARC
  8
0
 10
22.450
 20
2.650
 40
0.350
 50
3.778
 51
-176.222
  0
LINE
  8
0
 10
22.101
 20
2.627
 11
22.451
 21
-2.673
  0
LINE
  8
0
 10
22.799
 20
2.673
 11
23.149
 21
-2.627
  0
ARC
  8
0
 10
22.800
 20
-2.650
 40
0.350
 50
-176.222
 51
3.778
  0
LINE
  8
0
 10
22.801
 20
2.673
 11
22.800
 21
2.662
  0
LINE
  8
0
 10
23.149
 20
-2.673
 11
23.150
 21
-2.662
  0
ARC
  8
0
 10
23.150
 20
2.650
 40
0.350
 50
3.778
 51
-176.222
  0
LINE
  8
0
 10
22.801
 20
2.627
 11
23.151
 21
-2.673
  0
LINE
  8
0
 10
23.499
 20
2.673
 11
23.849
 21
-2.627
  0
ARC
  8
0
 10
23.500
 20
-2.650
 40
0.350
 50
-176.222
 51
3.778
  0
LINE
  8
0
 10
23.501
 20
2.673
 11
23.500
 21
2.662
  0
LINE
  8
0
 10
23.849
 20
-2.673
 11
23.850
 21
-2.662
  0
ARC
  8
0
 10
23.850
 20
2.650
 40
0.350
 50
3.778
 51
-176.222
  0
LINE
  8
0
 10
23.501
 20
2.627
 11
23.851
 21
-2.673
  0
LINE
  8
0
 10
24.199
 20
2.673
 11
24.549
 21
-2.627
  0
ARC
  8
0
 10
24.200
 20
-2.650
 40
0.350
 50
-176.222
 51
3.778
  0
LINE
  8
0
 10
24.201
 20
2.673
 11
24.200
 21
2.662
  0
LINE
  8
0
 10
24.549
 20
-2.673
 11
24.550
 21
-2.662
  0
ARC
  8
0
 10
24.550
 20
2.650
 40
0.350
 50
3.778
 51
-176.222
  0
LINE
  8
0
 10
24.201
 20
2.627
 11
24.507
 21
-2.011
  0
LINE
  8
0
 10
24.899
 20
2.673
 11
25.205
 21
-1.964
  0
ARC
  8
0
 10
24.856
 20
-1.988
 40
0.350
 50
-176.222
 51
3.778
  0
LINE
  8
0
 10
25.206
 20
-1.995
 11
25.251
 21
0.050
  0
ARC
  8
0
 10
27.550
 20
0.000
 40
2.300
 50
-112.500
 51
178.757
  0
ARC
  8
0
 10
27.550
 20
0.000
 40
3.000
 50
-112.500
 51
149.160
  0
LINE
  8
0
 10
26.402
 20
-2.772
 11
26.670
 21
-2.125
  0
ENDSEC
  0
EOF
