  0
SECTION
  2
ENTITIES
  0
ARC
  8
0
 10
2.200
 20
0.000
 40
2.200
 50
67.500
 51
-1.445
  0
ARC
  8
0
 10
2.200
 20
0.000
 40
3.000
 50
67.500
 51
-32.733
  0
LINE
  8
0
 10
3.042
 20
2.033
 11
3.348
 21
2.772
  0
LINE
  8
0
 10
4.399
 20
-0.055
 11
4.450
 21
1.960
  0
ARC
  8
0
 10
4.850
 20
1.950
 40
0.400
 50
4.399
 51
-175.601
  0
LINE
  8
0
 10
4.451
 20
1.919
 11
4.801
 21
-2.631
  0
LINE
  8
0
 10
5.249
 20
1.981
 11
5.599
 21
-2.569
  0
ARC
  8
0
 10
5.200
 20
-2.600
 40
0.400
 50
-175.601
 51
4.399
  0
LINE
  8
0
 10
5.201
 20
2.631
 11
5.200
 21
2.615
  0
LINE
  8
0
 10
5.599
 20
-2.631
 11
5.600
 21
-2.615
  0
ARC
  8
0
 10
5.600
 20
2.600
 40
0.400
 50
4.399
 51
-175.601
  0
LINE
  8
0
 10
5.201
 20
2.569
 11
5.601
 21
-2.631
  0
LINE
  8
0
 10
5.999
 20
2.631
 11
6.399
 21
-2.569
  0
ARC
  8
0
 10
6.000
 20
-2.600
 40
0.400
 50
-175.601
 51
4.399
  0
LINE
  8
0
 10
6.001
 20
2.631
 11
6.000
 21
2.615
  0
LINE
  8
0
 10
6.399
 20
-2.631
 11
6.400
 21
-2.615
  0
ARC
  8
0
 10
6.400
 20
2.600
 40
0.400
 50
4.399
 51
-175.601
  0
LINE
  8
0
 10
6.001
 20
2.569
 11
6.401
 21
-2.631
  0
LINE
  8
0
 10
6.799
 20
2.631
 11
7.199
 21
-2.569
  0
ARC
  8
0
 10
6.800
 20
-2.600
 40
0.400
 50
-175.601
 51
4.399
  0
LINE
  8
0
 10
6.801
 20
2.631
 11
6.800
 21
2.615
  0
LINE
  8
0
 10
7.199
 20
-2.631
 11
7.200
 21
-2.615
  0
ARC
  8
0
 10
7.200
 20
2.600
 40
0.400
 50
4.399
 51
-175.601
  0
LINE
  8
0
 10
6.801
 20
2.569
 11
7.201
 21
-2.631
  0
LINE
  8
0
 10
7.599
 20
2.631
 11
7.999
 21
-2.569
  0
ARC
  8
0
 10
7.600
 20
-2.600
 40
0.400
 50
-175.601
 51
4.399
  0
LINE
  8
0
 10
7.601
 20
2.631
 11
7.600
 21
2.615
  0
LINE
  8
0
 10
7.999
 20
-2.631
 11
8.000
 21
-2.615
  0
ARC
  8
0
 10
8.000
 20
2.600
 40
0.400
 50
4.399
 51
-175.601
  0
LINE
  8
0
 10
7.601
 20
2.569
 11
8.001
 21
-2.631
  0
LINE
  8
0
 10
8.399
 20
2.631
 11
8.799
 21
-2.569
  0
ARC
  8
0
 10
8.400
 20
-2.600
 40
0.400
 50
-175.601
 51
4.399
  0
LINE
  8
0
 10
8.401
 20
2.631
 11
8.400
 21
2.615
  0
LINE
  8
0
 10
8.799
 20
-2.631
 11
8.800
 21
-2.615
  0
ARC
  8
0
 10
8.800
 20
2.600
 40
0.400
 50
4.399
 51
-175.601
  0
LINE
  8
0
 10
8.401
 20
2.569
 11
8.801
 21
-2.631
  0
LINE
  8
0
 10
9.199
 20
2.631
 11
9.599
 21
-2.569
  0
ARC
  8
0
 10
9.200
 20
-2.600
 40
0.400
 50
-175.601
 51
4.399
  0
LINE
  8
0
 10
9.201
 20
2.631
 11
9.200
 21
2.615
  0
LINE
  8
0
 10
9.599
 20
-2.631
 11
9.600
 21
-2.615
  0
ARC
  8
0
 10
9.600
 20
2.600
 40
0.400
 50
4.399
 51
-175.601
  0
LINE
  8
0
 10
9.201
 20
2.569
 11
9.601
 21
-2.631
  0
LINE
  8
0
 10
9.999
 20
2.631
 11
10.399
 21
-2.569
  0
ARC
  8
0
 10
10.000
 20
-2.600
 40
0.400
 50
-175.601
 51
4.399
  0
LINE
  8
0
 10
10.001
 20
2.631
 11
10.000
 21
2.615
  0
LINE
  8
0
 10
10.399
 20
-2.631
 11
10.400
 21
-2.615
  0
ARC
  8
0
 10
10.400
 20
2.600
 40
0.400
 50
4.399
 51
-175.601
  0
LINE
  8
0
 10
10.001
 20
2.569
 11
10.401
 21
-2.631
  0
LINE
  8
0
 10
10.799
 20
2.631
 11
11.199
 21
-2.569
  0
ARC
  8
0
 10
10.800
 20
-2.600
 40
0.400
 50
-175.601
 51
4.399
  0
LINE
  8
0
 10
10.801
 20
2.631
 11
10.800
 21
2.615
  0
LINE
  8
0
 10
11.199
 20
-2.631
 11
11.200
 21
-2.615
  0
ARC
  8
0
 10
11.200
 20
2.600
 40
0.400
 50
4.399
 51
-175.601
  0
LINE
  8
0
 10
10.801
 20
2.569
 11
11.201
 21
-2.631
  0
LINE
  8
0
 10
11.599
 20
2.631
 11
11.999
 21
-2.569
  0
ARC
  8
0
 10
11.600
 20
-2.600
 40
0.400
 50
-175.601
 51
4.399
  0
LINE
  8
0
 10
11.601
 20
2.631
 11
11.600
 21
2.615
  0
LINE
  8
0
 10
11.999
 20
-2.631
 11
12.000
 21
-2.615
  0
ARC
  8
0
 10
12.000
 20
2.600
 40
0.400
 50
4.399
 51
-175.601
  0
LINE
  8
0
 10
11.601
 20
2.569
 11
12.001
 21
-2.631
  0
LINE
  8
0
 10
12.399
 20
2.631
 11
12.799
 21
-2.569
  0
ARC
  8
0
 10
12.400
 20
-2.600
 40
0.400
 50
-175.601
 51
4.399
  0
LINE
  8
0
 10
12.401
 20
2.631
 11
12.400
 21
2.615
  0
LINE
  8
0
 10
12.799
 20
-2.631
 11
12.800
 21
-2.615
  0
ARC
  8
0
 10
12.800
 20
2.600
 40
0.400
 50
4.399
 51
-175.601
  0
LINE
  8
0
 10
12.401
 20
2.569
 11
12.801
 21
-2.631
  0
LINE
  8
0
 10
13.199
 20
2.631
 11
13.599
 21
-2.569
  0
ARC
  8
0
 10
13.200
 20
-2.600
 40
0.400
 50
-175.601
 51
4.399
  0
LINE
  8
0
 10
13.201
 20
2.631
 11
13.200
 21
2.615
  0
LINE
  8
0
 10
13.599
 20
-2.631
 11
13.600
 21
-2.615
  0
ARC
  8
0
 10
13.600
 20
2.600
 40
0.400
 50
4.399
 51
-175.601
  0
LINE
  8
0
 10
13.201
 20
2.569
 11
13.601
 21
-2.631
  0
LINE
  8
0
 10
13.999
 20
2.631
 11
14.399
 21
-2.569
  0
ARC
  8
0
 10
14.000
 20
-2.600
 40
0.400
 50
-175.601
 51
4.399
  0
LINE
  8
0
 10
14.001
 20
2.631
 11
14.000
 21
2.615
  0
LINE
  8
0
 10
14.399
 20
-2.631
 11
14.400
 21
-2.615
  0
ARC
  8
0
 10
14.400
 20
2.600
 40
0.400
 50
4.399
 51
-175.601
  0
LINE
  8
0
 10
14.001
 20
2.569
 11
14.351
 21
-1.981
  0
LINE
  8
0
 10
14.799
 20
2.631
 11
15.149
 21
-1.919
  0
ARC
  8
0
 10
14.750
 20
-1.950
 40
0.400
 50
-175.601
 51
4.399
  0
LINE
  8
0
 10
15.150
 20
-1.960
 11
15.201
 21
0.055
  0
ARC
  8
0
 10
17.400
 20
0.000
 40
2.200
 50
-112.500
 51
178.555
  0
ARC
  8
0
 10
17.400
 20
0.000
 40
3.000
 50
-112.500
 51
147.267
  0
LINE
  8
0
 10
16.252
 20
-2.772
 11
16.558
 21
-2.033
  0
ENDSEC
  0
EOF
