  0
SECTION
  2
ENTITIES
  0
ARC
  8
0
 10
2.200
 20
0.000
 40
2.200
 50
67.500
 51
-1.445
  0
ARC
  8
0
 10
2.200
 20
0.000
 40
3.000
 50
67.500
 51
-32.733
  0
LINE
  8
0
 10
3.042
 20
2.033
 11
3.348
 21
2.772
  0
LINE
  8
0
 10
4.399
 20
-0.055
 11
4.450
 21
1.960
  0
ARC
  8
0
 10
4.850
 20
1.950
 40
0.400
 50
4.399
 51
-175.601
  0
LINE
  8
0
 10
4.451
 20
1.919
 11
4.801
 21
-2.631
  0
LINE
  8
0
 10
5.249
 20
1.981
 11
5.599
 21
-2.569
  0
ARC
  8
0
 10
5.200
 20
-2.600
 40
0.400
 50
-175.601
 51
4.399
  0
LINE
  8
0
 10
5.201
 20
2.631
 11
5.200
 21
2.615
  0
LINE
  8
0
 10
5.599
 20
-2.631
 11
5.600
 21
-2.615
  0
ARC
  8
0
 10
5.600
 20
2.600
 40
0.400
 50
4.399
 51
-175.601
  0
LINE
  8
0
 10
5.201
 20
2.569
 11
5.601
 21
-2.631
  0
LINE
  8
0
 10
5.999
 20
2.631
 11
6.399
 21
-2.569
  0
ARC
  8
0
 10
6.000
 20
-2.600
 40
0.400
 50
-175.601
 51
4.399
  0
LINE
  8
0
 10
6.001
 20
2.631
 11
6.000
 21
2.615
  0
LINE
  8
0
 10
6.399
 20
-2.631
 11
6.400
 21
-2.615
  0
ARC
  8
0
 10
6.400
 20
2.600
 40
0.400
 50
4.399
 51
-175.601
  0
LINE
  8
0
 10
6.001
 20
2.569
 11
6.401
 21
-2.631
  0
LINE
  8
0
 10
6.799
 20
2.631
 11
7.199
 21
-2.569
  0
ARC
  8
0
 10
6.800
 20
-2.600
 40
0.400
 50
-175.601
 51
4.399
  0
LINE
  8
0
 10
6.801
 20
2.631
 11
6.800
 21
2.615
  0
LINE
  8
0
 10
7.199
 20
-2.631
 11
7.200
 21
-2.615
  0
ARC
  8
0
 10
7.200
 20
2.600
 40
0.400
 50
4.399
 51
-175.601
  0
LINE
  8
0
 10
6.801
 20
2.569
 11
7.201
 21
-2.631
  0
LINE
  8
0
 10
7.599
 20
2.631
 11
7.999
 21
-2.569
  0
ARC
  8
0
 10
7.600
 20
-2.600
 40
0.400
 50
-175.601
 51
4.399
  0
LINE
  8
0
 10
7.601
 20
2.631
 11
7.600
 21
2.615
  0
LINE
  8
0
 10
7.999
 20
-2.631
 11
8.000
 21
-2.615
  0
ARC
  8
0
 10
8.000
 20
2.600
 40
0.400
 50
4.399
 51
-175.601
  0
LINE
  8
0
 10
7.601
 20
2.569
 11
8.001
 21
-2.631
  0
LINE
  8
0
 10
8.399
 20
2.631
 11
8.799
 21
-2.569
  0
ARC
  8
0
 10
8.400
 20
-2.600
 40
0.400
 50
-175.601
 51
4.399
  0
LINE
  8
0
 10
8.401
 20
2.631
 11
8.400
 21
2.615
  0
LINE
  8
0
 10
8.799
 20
-2.631
 11
8.800
 21
-2.615
  0
ARC
  8
0
 10
8.800
 20
2.600
 40
0.400
 50
4.399
 51
-175.601
  0
LINE
  8
0
 10
8.401
 20
2.569
 11
8.801
 21
-2.631
  0
LINE
  8
0
 10
9.199
 20
2.631
 11
9.599
 21
-2.569
  0
ARC
  8
0
 10
9.200
 20
-2.600
 40
0.400
 50
-175.601
 51
4.399
  0
LINE
  8
0
 10
9.201
 20
2.631
 11
9.200
 21
2.615
  0
LINE
  8
0
 10
9.599
 20
-2.631
 11
9.600
 21
-2.615
  0
ARC
  8
0
 10
9.600
 20
2.600
 40
0.400
 50
4.399
 51
-175.601
  0
LINE
  8
0
 10
9.201
 20
2.569
 11
9.601
 21
-2.631
  0
LINE
  8
0
 10
9.999
 20
2.631
 11
10.399
 21
-2.569
  0
ARC
  8
0
 10
10.000
 20
-2.600
 40
0.400
 50
-175.601
 51
4.399
  0
LINE
  8
0
 10
10.001
 20
2.631
 11
10.000
 21
2.615
  0
LINE
  8
0
 10
10.399
 20
-2.631
 11
10.400
 21
-2.615
  0
ARC
  8
0
 10
10.400
 20
2.600
 40
0.400
 50
4.399
 51
-175.601
  0
LINE
  8
0
 10
10.001
 20
2.569
 11
10.401
 21
-2.631
  0
LINE
  8
0
 10
10.799
 20
2.631
 11
11.199
 21
-2.569
  0
ARC
  8
0
 10
10.800
 20
-2.600
 40
0.400
 50
-175.601
 51
4.399
  0
LINE
  8
0
 10
10.801
 20
2.631
 11
10.800
 21
2.615
  0
LINE
  8
0
 10
11.199
 20
-2.631
 11
11.200
 21
-2.615
  0
ARC
  8
0
 10
11.200
 20
2.600
 40
0.400
 50
4.399
 51
-175.601
  0
LINE
  8
0
 10
10.801
 20
2.569
 11
11.201
 21
-2.631
  0
LINE
  8
0
 10
11.599
 20
2.631
 11
11.999
 21
-2.569
  0
ARC
  8
0
 10
11.600
 20
-2.600
 40
0.400
 50
-175.601
 51
4.399
  0
LINE
  8
0
 10
11.601
 20
2.631
 11
11.600
 21
2.615
  0
LINE
  8
0
 10
11.999
 20
-2.631
 11
12.000
 21
-2.615
  0
ARC
  8
0
 10
12.000
 20
2.600
 40
0.400
 50
4.399
 51
-175.601
  0
LINE
  8
0
 10
11.601
 20
2.569
 11
12.001
 21
-2.631
  0
LINE
  8
0
 10
12.399
 20
2.631
 11
12.799
 21
-2.569
  0
ARC
  8
0
 10
12.400
 20
-2.600
 40
0.400
 50
-175.601
 51
4.399
  0
LINE
  8
0
 10
12.401
 20
2.631
 11
12.400
 21
2.615
  0
LINE
  8
0
 10
12.799
 20
-2.631
 11
12.800
 21
-2.615
  0
ARC
  8
0
 10
12.800
 20
2.600
 40
0.400
 50
4.399
 51
-175.601
  0
LINE
  8
0
 10
12.401
 20
2.569
 11
12.801
 21
-2.631
  0
LINE
  8
0
 10
13.199
 20
2.631
 11
13.599
 21
-2.569
  0
ARC
  8
0
 10
13.200
 20
-2.600
 40
0.400
 50
-175.601
 51
4.399
  0
LINE
  8
0
 10
13.201
 20
2.631
 11
13.200
 21
2.615
  0
LINE
  8
0
 10
13.599
 20
-2.631
 11
13.600
 21
-2.615
  0
ARC
  8
0
 10
13.600
 20
2.600
 40
0.400
 50
4.399
 51
-175.601
  0
LINE
  8
0
 10
13.201
 20
2.569
 11
13.601
 21
-2.631
  0
LINE
  8
0
 10
13.999
 20
2.631
 11
14.399
 21
-2.569
  0
ARC
  8
0
 10
14.000
 20
-2.600
 40
0.400
 50
-175.601
 51
4.399
  0
LINE
  8
0
 10
14.001
 20
2.631
 11
14.000
 21
2.615
  0
LINE
  8
0
 10
14.399
 20
-2.631
 11
14.400
 21
-2.615
  0
ARC
  8
0
 10
14.400
 20
2.600
 40
0.400
 50
4.399
 51
-175.601
  0
LINE
  8
0
 10
14.001
 20
2.569
 11
14.401
 21
-2.631
  0
LINE
  8
0
 10
14.799
 20
2.631
 11
15.199
 21
-2.569
  0
ARC
  8
0
 10
14.800
 20
-2.600
 40
0.400
 50
-175.601
 51
4.399
  0
LINE
  8
0
 10
14.801
 20
2.631
 11
14.800
 21
2.615
  0
LINE
  8
0
 10
15.199
 20
-2.631
 11
15.200
 21
-2.615
  0
ARC
  8
0
 10
15.200
 20
2.600
 40
0.400
 50
4.399
 51
-175.601
  0
LINE
  8
0
 10
14.801
 20
2.569
 11
15.201
 21
-2.631
  0
LINE
  8
0
 10
15.599
 20
2.631
 11
15.999
 21
-2.569
  0
ARC
  8
0
 10
15.600
 20
-2.600
 40
0.400
 50
-175.601
 51
4.399
  0
LINE
  8
0
 10
15.601
 20
2.631
 11
15.600
 21
2.615
  0
LINE
  8
0
 10
15.999
 20
-2.631
 11
16.000
 21
-2.615
  0
ARC
  8
0
 10
16.000
 20
2.600
 40
0.400
 50
4.399
 51
-175.601
  0
LINE
  8
0
 10
15.601
 20
2.569
 11
16.001
 21
-2.631
  0
LINE
  8
0
 10
16.399
 20
2.631
 11
16.799
 21
-2.569
  0
ARC
  8
0
 10
16.400
 20
-2.600
 40
0.400
 50
-175.601
 51
4.399
  0
LINE
  8
0
 10
16.401
 20
2.631
 11
16.400
 21
2.615
  0
LINE
  8
0
 10
16.799
 20
-2.631
 11
16.800
 21
-2.615
  0
ARC
  8
0
 10
16.800
 20
2.600
 40
0.400
 50
4.399
 51
-175.601
  0
LINE
  8
0
 10
16.401
 20
2.569
 11
16.801
 21
-2.631
  0
LINE
  8
0
 10
17.199
 20
2.631
 11
17.599
 21
-2.569
  0
ARC
  8
0
 10
17.200
 20
-2.600
 40
0.400
 50
-175.601
 51
4.399
  0
LINE
  8
0
 10
17.201
 20
2.631
 11
17.200
 21
2.615
  0
LINE
  8
0
 10
17.599
 20
-2.631
 11
17.600
 21
-2.615
  0
ARC
  8
0
 10
17.600
 20
2.600
 40
0.400
 50
4.399
 51
-175.601
  0
LINE
  8
0
 10
17.201
 20
2.569
 11
17.601
 21
-2.631
  0
LINE
  8
0
 10
17.999
 20
2.631
 11
18.399
 21
-2.569
  0
ARC
  8
0
 10
18.000
 20
-2.600
 40
0.400
 50
-175.601
 51
4.399
  0
LINE
  8
0
 10
18.001
 20
2.631
 11
18.000
 21
2.615
  0
LINE
  8
0
 10
18.399
 20
-2.631
 11
18.400
 21
-2.615
  0
ARC
  8
0
 10
18.400
 20
2.600
 40
0.400
 50
4.399
 51
-175.601
  0
LINE
  8
0
 10
18.001
 20
2.569
 11
18.401
 21
-2.631
  0
LINE
  8
0
 10
18.799
 20
2.631
 11
19.199
 21
-2.569
  0
ARC
  8
0
 10
18.800
 20
-2.600
 40
0.400
 50
-175.601
 51
4.399
  0
LINE
  8
0
 10
18.801
 20
2.631
 11
18.800
 21
2.615
  0
LINE
  8
0
 10
19.199
 20
-2.631
 11
19.200
 21
-2.615
  0
ARC
  8
0
 10
19.200
 20
2.600
 40
0.400
 50
4.399
 51
-175.601
  0
LINE
  8
0
 10
18.801
 20
2.569
 11
19.201
 21
-2.631
  0
LINE
  8
0
 10
19.599
 20
2.631
 11
19.999
 21
-2.569
  0
ARC
  8
0
 10
19.600
 20
-2.600
 40
0.400
 50
-175.601
 51
4.399
  0
LINE
  8
0
 10
19.601
 20
2.631
 11
19.600
 21
2.615
  0
LINE
  8
0
 10
19.999
 20
-2.631
 11
20.000
 21
-2.615
  0
ARC
  8
0
 10
20.000
 20
2.600
 40
0.400
 50
4.399
 51
-175.601
  0
LINE
  8
0
 10
19.601
 20
2.569
 11
20.001
 21
-2.631
  0
LINE
  8
0
 10
20.399
 20
2.631
 11
20.799
 21
-2.569
  0
ARC
  8
0
 10
20.400
 20
-2.600
 40
0.400
 50
-175.601
 51
4.399
  0
LINE
  8
0
 10
20.401
 20
2.631
 11
20.400
 21
2.615
  0
LINE
  8
0
 10
20.799
 20
-2.631
 11
20.800
 21
-2.615
  0
ARC
  8
0
 10
20.800
 20
2.600
 40
0.400
 50
4.399
 51
-175.601
  0
LINE
  8
0
 10
20.401
 20
2.569
 11
20.801
 21
-2.631
  0
LINE
  8
0
 10
21.199
 20
2.631
 11
21.599
 21
-2.569
  0
ARC
  8
0
 10
21.200
 20
-2.600
 40
0.400
 50
-175.601
 51
4.399
  0
LINE
  8
0
 10
21.201
 20
2.631
 11
21.200
 21
2.615
  0
LINE
  8
0
 10
21.599
 20
-2.631
 11
21.600
 21
-2.615
  0
ARC
  8
0
 10
21.600
 20
2.600
 40
0.400
 50
4.399
 51
-175.601
  0
LINE
  8
0
 10
21.201
 20
2.569
 11
21.601
 21
-2.631
  0
LINE
  8
0
 10
21.999
 20
2.631
 11
22.399
 21
-2.569
  0
ARC
  8
0
 10
22.000
 20
-2.600
 40
0.400
 50
-175.601
 51
4.399
  0
LINE
  8
0
 10
22.001
 20
2.631
 11
22.000
 21
2.615
  0
LINE
  8
0
 10
22.399
 20
-2.631
 11
22.400
 21
-2.615
  0
ARC
  8
0
 10
22.400
 20
2.600
 40
0.400
 50
4.399
 51
-175.601
  0
LINE
  8
0
 10
22.001
 20
2.569
 11
22.401
 21
-2.631
  0
LINE
  8
0
 10
22.799
 20
2.631
 11
23.199
 21
-2.569
  0
ARC
  8
0
 10
22.800
 20
-2.600
 40
0.400
 50
-175.601
 51
4.399
  0
LINE
  8
0
 10
22.801
 20
2.631
 11
22.800
 21
2.615
  0
LINE
  8
0
 10
23.199
 20
-2.631
 11
23.200
 21
-2.615
  0
ARC
  8
0
 10
23.200
 20
2.600
 40
0.400
 50
4.399
 51
-175.601
  0
LINE
  8
0
 10
22.801
 20
2.569
 11
23.201
 21
-2.631
  0
LINE
  8
0
 10
23.599
 20
2.631
 11
23.999
 21
-2.569
  0
ARC
  8
0
 10
23.600
 20
-2.600
 40
0.400
 50
-175.601
 51
4.399
  0
LINE
  8
0
 10
23.601
 20
2.631
 11
23.600
 21
2.615
  0
LINE
  8
0
 10
23.999
 20
-2.631
 11
24.000
 21
-2.615
  0
ARC
  8
0
 10
24.000
 20
2.600
 40
0.400
 50
4.399
 51
-175.601
  0
LINE
  8
0
 10
23.601
 20
2.569
 11
24.001
 21
-2.631
  0
LINE
  8
0
 10
24.399
 20
2.631
 11
24.799
 21
-2.569
  0
ARC
  8
0
 10
24.400
 20
-2.600
 40
0.400
 50
-175.601
 51
4.399
  0
LINE
  8
0
 10
24.401
 20
2.631
 11
24.400
 21
2.615
  0
LINE
  8
0
 10
24.799
 20
-2.631
 11
24.800
 21
-2.615
  0
ARC
  8
0
 10
24.800
 20
2.600
 40
0.400
 50
4.399
 51
-175.601
  0
LINE
  8
0
 10
24.401
 20
2.569
 11
24.801
 21
-2.631
  0
LINE
  8
0
 10
25.199
 20
2.631
 11
25.599
 21
-2.569
  0
ARC
  8
0
 10
25.200
 20
-2.600
 40
0.400
 50
-175.601
 51
4.399
  0
LINE
  8
0
 10
25.201
 20
2.631
 11
25.200
 21
2.615
  0
LINE
  8
0
 10
25.599
 20
-2.631
 11
25.600
 21
-2.615
  0
ARC
  8
0
 10
25.600
 20
2.600
 40
0.400
 50
4.399
 51
-175.601
  0
LINE
  8
0
 10
25.201
 20
2.569
 11
25.601
 21
-2.631
  0
LINE
  8
0
 10
25.999
 20
2.631
 11
26.399
 21
-2.569
  0
ARC
  8
0
 10
26.000
 20
-2.600
 40
0.400
 50
-175.601
 51
4.399
  0
LINE
  8
0
 10
26.001
 20
2.631
 11
26.000
 21
2.615
  0
LINE
  8
0
 10
26.399
 20
-2.631
 11
26.400
 21
-2.615
  0
ARC
  8
0
 10
26.400
 20
2.600
 40
0.400
 50
4.399
 51
-175.601
  0
LINE
  8
0
 10
26.001
 20
2.569
 11
26.401
 21
-2.631
  0
LINE
  8
0
 10
26.799
 20
2.631
 11
27.199
 21
-2.569
  0
ARC
  8
0
 10
26.800
 20
-2.600
 40
0.400
 50
-175.601
 51
4.399
  0
LINE
  8
0
 10
26.801
 20
2.631
 11
26.800
 21
2.615
  0
LINE
  8
0
 10
27.199
 20
-2.631
 11
27.200
 21
-2.615
  0
ARC
  8
0
 10
27.200
 20
2.600
 40
0.400
 50
4.399
 51
-175.601
  0
LINE
  8
0
 10
26.801
 20
2.569
 11
27.201
 21
-2.631
  0
LINE
  8
0
 10
27.599
 20
2.631
 11
27.999
 21
-2.569
  0
ARC
  8
0
 10
27.600
 20
-2.600
 40
0.400
 50
-175.601
 51
4.399
  0
LINE
  8
0
 10
27.601
 20
2.631
 11
27.600
 21
2.615
  0
LINE
  8
0
 10
27.999
 20
-2.631
 11
28.000
 21
-2.615
  0
ARC
  8
0
 10
28.000
 20
2.600
 40
0.400
 50
4.399
 51
-175.601
  0
LINE
  8
0
 10
27.601
 20
2.569
 11
28.001
 21
-2.631
  0
LINE
  8
0
 10
28.399
 20
2.631
 11
28.799
 21
-2.569
  0
ARC
  8
0
 10
28.400
 20
-2.600
 40
0.400
 50
-175.601
 51
4.399
  0
LINE
  8
0
 10
28.401
 20
2.631
 11
28.400
 21
2.615
  0
LINE
  8
0
 10
28.799
 20
-2.631
 11
28.800
 21
-2.615
  0
ARC
  8
0
 10
28.800
 20
2.600
 40
0.400
 50
4.399
 51
-175.601
  0
LINE
  8
0
 10
28.401
 20
2.569
 11
28.801
 21
-2.631
  0
LINE
  8
0
 10
29.199
 20
2.631
 11
29.599
 21
-2.569
  0
ARC
  8
0
 10
29.200
 20
-2.600
 40
0.400
 50
-175.601
 51
4.399
  0
LINE
  8
0
 10
29.201
 20
2.631
 11
29.200
 21
2.615
  0
LINE
  8
0
 10
29.599
 20
-2.631
 11
29.600
 21
-2.615
  0
ARC
  8
0
 10
29.600
 20
2.600
 40
0.400
 50
4.399
 51
-175.601
  0
LINE
  8
0
 10
29.201
 20
2.569
 11
29.601
 21
-2.631
  0
LINE
  8
0
 10
29.999
 20
2.631
 11
30.399
 21
-2.569
  0
ARC
  8
0
 10
30.000
 20
-2.600
 40
0.400
 50
-175.601
 51
4.399
  0
LINE
  8
0
 10
30.001
 20
2.631
 11
30.000
 21
2.615
  0
LINE
  8
0
 10
30.399
 20
-2.631
 11
30.400
 21
-2.615
  0
ARC
  8
0
 10
30.400
 20
2.600
 40
0.400
 50
4.399
 51
-175.601
  0
LINE
  8
0
 10
30.001
 20
2.569
 11
30.401
 21
-2.631
  0
LINE
  8
0
 10
30.799
 20
2.631
 11
31.199
 21
-2.569
  0
ARC
  8
0
 10
30.800
 20
-2.600
 40
0.400
 50
-175.601
 51
4.399
  0
LINE
  8
0
 10
30.801
 20
2.631
 11
30.800
 21
2.615
  0
LINE
  8
0
 10
31.199
 20
-2.631
 11
31.200
 21
-2.615
  0
ARC
  8
0
 10
31.200
 20
2.600
 40
0.400
 50
4.399
 51
-175.601
  0
LINE
  8
0
 10
30.801
 20
2.569
 11
31.201
 21
-2.631
  0
LINE
  8
0
 10
31.599
 20
2.631
 11
31.999
 21
-2.569
  0
ARC
  8
0
 10
31.600
 20
-2.600
 40
0.400
 50
-175.601
 51
4.399
  0
LINE
  8
0
 10
31.601
 20
2.631
 11
31.600
 21
2.615
  0
LINE
  8
0
 10
31.999
 20
-2.631
 11
32.000
 21
-2.615
  0
ARC
  8
0
 10
32.000
 20
2.600
 40
0.400
 50
4.399
 51
-175.601
  0
LINE
  8
0
 10
31.601
 20
2.569
 11
32.001
 21
-2.631
  0
LINE
  8
0
 10
32.399
 20
2.631
 11
32.799
 21
-2.569
  0
ARC
  8
0
 10
32.400
 20
-2.600
 40
0.400
 50
-175.601
 51
4.399
  0
LINE
  8
0
 10
32.401
 20
2.631
 11
32.400
 21
2.615
  0
LINE
  8
0
 10
32.799
 20
-2.631
 11
32.800
 21
-2.615
  0
ARC
  8
0
 10
32.800
 20
2.600
 40
0.400
 50
4.399
 51
-175.601
  0
LINE
  8
0
 10
32.401
 20
2.569
 11
32.801
 21
-2.631
  0
LINE
  8
0
 10
33.199
 20
2.631
 11
33.599
 21
-2.569
  0
ARC
  8
0
 10
33.200
 20
-2.600
 40
0.400
 50
-175.601
 51
4.399
  0
LINE
  8
0
 10
33.201
 20
2.631
 11
33.200
 21
2.615
  0
LINE
  8
0
 10
33.599
 20
-2.631
 11
33.600
 21
-2.615
  0
ARC
  8
0
 10
33.600
 20
2.600
 40
0.400
 50
4.399
 51
-175.601
  0
LINE
  8
0
 10
33.201
 20
2.569
 11
33.601
 21
-2.631
  0
LINE
  8
0
 10
33.999
 20
2.631
 11
34.399
 21
-2.569
  0
ARC
  8
0
 10
34.000
 20
-2.600
 40
0.400
 50
-175.601
 51
4.399
  0
LINE
  8
0
 10
34.001
 20
2.631
 11
34.000
 21
2.615
  0
LINE
  8
0
 10
34.399
 20
-2.631
 11
34.400
 21
-2.615
  0
ARC
  8
0
 10
34.400
 20
2.600
 40
0.400
 50
4.399
 51
-175.601
  0
LINE
  8
0
 10
34.001
 20
2.569
 11
34.401
 21
-2.631
  0
LINE
  8
0
 10
34.799
 20
2.631
 11
35.199
 21
-2.569
  0
ARC
  8
0
 10
34.800
 20
-2.600
 40
0.400
 50
-175.601
 51
4.399
  0
LINE
  8
0
 10
34.801
 20
2.631
 11
34.800
 21
2.615
  0
LINE
  8
0
 10
35.199
 20
-2.631
 11
35.200
 21
-2.615
  0
ARC
  8
0
 10
35.200
 20
2.600
 40
0.400
 50
4.399
 51
-175.601
  0
LINE
  8
0
 10
34.801
 20
2.569
 11
35.201
 21
-2.631
  0
LINE
  8
0
 10
35.599
 20
2.631
 11
35.999
 21
-2.569
  0
ARC
  8
0
 10
35.600
 20
-2.600
 40
0.400
 50
-175.601
 51
4.399
  0
LINE
  8
0
 10
35.601
 20
2.631
 11
35.600
 21
2.615
  0
LINE
  8
0
 10
35.999
 20
-2.631
 11
36.000
 21
-2.615
  0
ARC
  8
0
 10
36.000
 20
2.600
 40
0.400
 50
4.399
 51
-175.601
  0
LINE
  8
0
 10
35.601
 20
2.569
 11
36.001
 21
-2.631
  0
LINE
  8
0
 10
36.399
 20
2.631
 11
36.799
 21
-2.569
  0
ARC
  8
0
 10
36.400
 20
-2.600
 40
0.400
 50
-175.601
 51
4.399
  0
LINE
  8
0
 10
36.401
 20
2.631
 11
36.400
 21
2.615
  0
LINE
  8
0
 10
36.799
 20
-2.631
 11
36.800
 21
-2.615
  0
ARC
  8
0
 10
36.800
 20
2.600
 40
0.400
 50
4.399
 51
-175.601
  0
LINE
  8
0
 10
36.401
 20
2.569
 11
36.801
 21
-2.631
  0
LINE
  8
0
 10
37.199
 20
2.631
 11
37.599
 21
-2.569
  0
ARC
  8
0
 10
37.200
 20
-2.600
 40
0.400
 50
-175.601
 51
4.399
  0
LINE
  8
0
 10
37.201
 20
2.631
 11
37.200
 21
2.615
  0
LINE
  8
0
 10
37.599
 20
-2.631
 11
37.600
 21
-2.615
  0
ARC
  8
0
 10
37.600
 20
2.600
 40
0.400
 50
4.399
 51
-175.601
  0
LINE
  8
0
 10
37.201
 20
2.569
 11
37.601
 21
-2.631
  0
LINE
  8
0
 10
37.999
 20
2.631
 11
38.399
 21
-2.569
  0
ARC
  8
0
 10
38.000
 20
-2.600
 40
0.400
 50
-175.601
 51
4.399
  0
LINE
  8
0
 10
38.001
 20
2.631
 11
38.000
 21
2.615
  0
LINE
  8
0
 10
38.399
 20
-2.631
 11
38.400
 21
-2.615
  0
ARC
  8
0
 10
38.400
 20
2.600
 40
0.400
 50
4.399
 51
-175.601
  0
LINE
  8
0
 10
38.001
 20
2.569
 11
38.401
 21
-2.631
  0
LINE
  8
0
 10
38.799
 20
2.631
 11
39.199
 21
-2.569
  0
ARC
  8
0
 10
38.800
 20
-2.600
 40
0.400
 50
-175.601
 51
4.399
  0
LINE
  8
0
 10
38.801
 20
2.631
 11
38.800
 21
2.615
  0
LINE
  8
0
 10
39.199
 20
-2.631
 11
39.200
 21
-2.615
  0
ARC
  8
0
 10
39.200
 20
2.600
 40
0.400
 50
4.399
 51
-175.601
  0
LINE
  8
0
 10
38.801
 20
2.569
 11
39.201
 21
-2.631
  0
LINE
  8
0
 10
39.599
 20
2.631
 11
39.999
 21
-2.569
  0
ARC
  8
0
 10
39.600
 20
-2.600
 40
0.400
 50
-175.601
 51
4.399
  0
LINE
  8
0
 10
39.601
 20
2.631
 11
39.600
 21
2.615
  0
LINE
  8
0
 10
39.999
 20
-2.631
 11
40.000
 21
-2.615
  0
ARC
  8
0
 10
40.000
 20
2.600
 40
0.400
 50
4.399
 51
-175.601
  0
LINE
  8
0
 10
39.601
 20
2.569
 11
40.001
 21
-2.631
  0
LINE
  8
0
 10
40.399
 20
2.631
 11
40.799
 21
-2.569
  0
ARC
  8
0
 10
40.400
 20
-2.600
 40
0.400
 50
-175.601
 51
4.399
  0
LINE
  8
0
 10
40.401
 20
2.631
 11
40.400
 21
2.615
  0
LINE
  8
0
 10
40.799
 20
-2.631
 11
40.800
 21
-2.615
  0
ARC
  8
0
 10
40.800
 20
2.600
 40
0.400
 50
4.399
 51
-175.601
  0
LINE
  8
0
 10
40.401
 20
2.569
 11
40.801
 21
-2.631
  0
LINE
  8
0
 10
41.199
 20
2.631
 11
41.599
 21
-2.569
  0
ARC
  8
0
 10
41.200
 20
-2.600
 40
0.400
 50
-175.601
 51
4.399
  0
LINE
  8
0
 10
41.201
 20
2.631
 11
41.200
 21
2.615
  0
LINE
  8
0
 10
41.599
 20
-2.631
 11
41.600
 21
-2.615
  0
ARC
  8
0
 10
41.600
 20
2.600
 40
0.400
 50
4.399
 51
-175.601
  0
LINE
  8
0
 10
41.201
 20
2.569
 11
41.601
 21
-2.631
  0
LINE
  8
0
 10
41.999
 20
2.631
 11
42.399
 21
-2.569
  0
ARC
  8
0
 10
42.000
 20
-2.600
 40
0.400
 50
-175.601
 51
4.399
  0
LINE
  8
0
 10
42.001
 20
2.631
 11
42.000
 21
2.615
  0
LINE
  8
0
 10
42.399
 20
-2.631
 11
42.400
 21
-2.615
  0
ARC
  8
0
 10
42.400
 20
2.600
 40
0.400
 50
4.399
 51
-175.601
  0
LINE
  8
0
 10
42.001
 20
2.569
 11
42.401
 21
-2.631
  0
LINE
  8
0
 10
42.799
 20
2.631
 11
43.199
 21
-2.569
  0
ARC
  8
0
 10
42.800
 20
-2.600
 40
0.400
 50
-175.601
 51
4.399
  0
LINE
  8
0
 10
42.801
 20
2.631
 11
42.800
 21
2.615
  0
LINE
  8
0
 10
43.199
 20
-2.631
 11
43.200
 21
-2.615
  0
ARC
  8
0
 10
43.200
 20
2.600
 40
0.400
 50
4.399
 51
-175.601
  0
LINE
  8
0
 10
42.801
 20
2.569
 11
43.201
 21
-2.631
  0
LINE
  8
0
 10
43.599
 20
2.631
 11
43.999
 21
-2.569
  0
ARC
  8
0
 10
43.600
 20
-2.600
 40
0.400
 50
-175.601
 51
4.399
  0
LINE
  8
0
 10
43.601
 20
2.631
 11
43.600
 21
2.615
  0
LINE
  8
0
 10
43.999
 20
-2.631
 11
44.000
 21
-2.615
  0
ARC
  8
0
 10
44.000
 20
2.600
 40
0.400
 50
4.399
 51
-175.601
  0
LINE
  8
0
 10
43.601
 20
2.569
 11
43.951
 21
-1.981
  0
LINE
  8
0
 10
44.399
 20
2.631
 11
44.749
 21
-1.919
  0
ARC
  8
0
 10
44.350
 20
-1.950
 40
0.400
 50
-175.601
 51
4.399
  0
LINE
  8
0
 10
44.750
 20
-1.960
 11
44.801
 21
0.055
  0
ARC
  8
0
 10
47.000
 20
0.000
 40
2.200
 50
-112.500
 51
178.555
  0
ARC
  8
0
 10
47.000
 20
0.000
 40
3.000
 50
-112.500
 51
147.267
  0
LINE
  8
0
 10
45.852
 20
-2.772
 11
46.158
 21
-2.033
  0
ENDSEC
  0
EOF
