  0
SECTION
  2
ENTITIES
  0
ARC
  8
0
 10
0.720
 20
0.000
 40
0.720
 50
67.500
 51
-1.048
  0
ARC
  8
0
 10
0.720
 20
0.000
 40
0.900
 50
67.500
 51
-28.767
  0
LINE
  8
0
 10
0.996
 20
0.665
 11
1.064
 21
0.831
  0
LINE
  8
0
 10
1.440
 20
-0.013
 11
1.451
 21
0.609
  0
ARC
  8
0
 10
1.541
 20
0.608
 40
0.090
 50
3.180
 51
-176.820
  0
LINE
  8
0
 10
1.451
 20
0.603
 11
1.530
 21
-0.815
  0
LINE
  8
0
 10
1.631
 20
0.612
 11
1.710
 21
-0.805
  0
ARC
  8
0
 10
1.620
 20
-0.810
 40
0.090
 50
-176.820
 51
3.180
  0
LINE
  8
0
 10
1.620
 20
0.815
 11
1.620
 21
0.812
  0
LINE
  8
0
 10
1.710
 20
-0.815
 11
1.710
 21
-0.812
  0
ARC
  8
0
 10
1.710
 20
0.810
 40
0.090
 50
3.180
 51
-176.820
  0
LINE
  8
0
 10
1.620
 20
0.805
 11
1.710
 21
-0.815
  0
LINE
  8
0
 10
1.800
 20
0.815
 11
1.890
 21
-0.805
  0
ARC
  8
0
 10
1.800
 20
-0.810
 40
0.090
 50
-176.820
 51
3.180
  0
LINE
  8
0
 10
1.800
 20
0.815
 11
1.800
 21
0.812
  0
LINE
  8
0
 10
1.890
 20
-0.815
 11
1.890
 21
-0.812
  0
ARC
  8
0
 10
1.890
 20
0.810
 40
0.090
 50
3.180
 51
-176.820
  0
LINE
  8
0
 10
1.800
 20
0.805
 11
1.890
 21
-0.815
  0
LINE
  8
0
 10
1.980
 20
0.815
 11
2.070
 21
-0.805
  0
ARC
  8
0
 10
1.980
 20
-0.810
 40
0.090
 50
-176.820
 51
3.180
  0
LINE
  8
0
 10
1.980
 20
0.815
 11
1.980
 21
0.812
  0
LINE
  8
0
 10
2.070
 20
-0.815
 11
2.070
 21
-0.812
  0
ARC
  8
0
 10
2.070
 20
0.810
 40
0.090
 50
3.180
 51
-176.820
  0
LINE
  8
0
 10
1.980
 20
0.805
 11
2.070
 21
-0.815
  0
LINE
  8
0
 10
2.160
 20
0.815
 11
2.250
 21
-0.805
  0
ARC
  8
0
 10
2.160
 20
-0.810
 40
0.090
 50
-176.820
 51
3.180
  0
LINE
  8
0
 10
2.160
 20
0.815
 11
2.160
 21
0.812
  0
LINE
  8
0
 10
2.250
 20
-0.815
 11
2.250
 21
-0.812
  0
ARC
  8
0
 10
2.250
 20
0.810
 40
0.090
 50
3.180
 51
-176.820
  0
LINE
  8
0
 10
2.160
 20
0.805
 11
2.250
 21
-0.815
  0
LINE
  8
0
 10
2.340
 20
0.815
 11
2.430
 21
-0.805
  0
ARC
  8
0
 10
2.340
 20
-0.810
 40
0.090
 50
-176.820
 51
3.180
  0
LINE
  8
0
 10
2.340
 20
0.815
 11
2.340
 21
0.812
  0
LINE
  8
0
 10
2.430
 20
-0.815
 11
2.430
 21
-0.812
  0
ARC
  8
0
 10
2.430
 20
0.810
 40
0.090
 50
3.180
 51
-176.820
  0
LINE
  8
0
 10
2.340
 20
0.805
 11
2.430
 21
-0.815
  0
LINE
  8
0
 10
2.520
 20
0.815
 11
2.610
 21
-0.805
  0
ARC
  8
0
 10
2.520
 20
-0.810
 40
0.090
 50
-176.820
 51
3.180
  0
LINE
  8
0
 10
2.520
 20
0.815
 11
2.520
 21
0.812
  0
LINE
  8
0
 10
2.610
 20
-0.815
 11
2.610
 21
-0.812
  0
ARC
  8
0
 10
2.610
 20
0.810
 40
0.090
 50
3.180
 51
-176.820
  0
LINE
  8
0
 10
2.520
 20
0.805
 11
2.610
 21
-0.815
  0
LINE
  8
0
 10
2.700
 20
0.815
 11
2.790
 21
-0.805
  0
ARC
  8
0
 10
2.700
 20
-0.810
 40
0.090
 50
-176.820
 51
3.180
  0
LINE
  8
0
 10
2.700
 20
0.815
 11
2.700
 21
0.812
  0
LINE
  8
0
 10
2.790
 20
-0.815
 11
2.790
 21
-0.812
  0
ARC
  8
0
 10
2.790
 20
0.810
 40
0.090
 50
3.180
 51
-176.820
  0
LINE
  8
0
 10
2.700
 20
0.805
 11
2.790
 21
-0.815
  0
LINE
  8
0
 10
2.880
 20
0.815
 11
2.970
 21
-0.805
  0
ARC
  8
0
 10
2.880
 20
-0.810
 40
0.090
 50
-176.820
 51
3.180
  0
LINE
  8
0
 10
2.880
 20
0.815
 11
2.880
 21
0.812
  0
LINE
  8
0
 10
2.970
 20
-0.815
 11
2.970
 21
-0.812
  0
ARC
  8
0
 10
2.970
 20
0.810
 40
0.090
 50
3.180
 51
-176.820
  0
LINE
  8
0
 10
2.880
 20
0.805
 11
2.970
 21
-0.815
  0
LINE
  8
0
 10
3.060
 20
0.815
 11
3.150
 21
-0.805
  0
ARC
  8
0
 10
3.060
 20
-0.810
 40
0.090
 50
-176.820
 51
3.180
  0
LINE
  8
0
 10
3.060
 20
0.815
 11
3.060
 21
0.812
  0
LINE
  8
0
 10
3.150
 20
-0.815
 11
3.150
 21
-0.812
  0
ARC
  8
0
 10
3.150
 20
0.810
 40
0.090
 50
3.180
 51
-176.820
  0
LINE
  8
0
 10
3.060
 20
0.805
 11
3.150
 21
-0.815
  0
LINE
  8
0
 10
3.240
 20
0.815
 11
3.330
 21
-0.805
  0
ARC
  8
0
 10
3.240
 20
-0.810
 40
0.090
 50
-176.820
 51
3.180
  0
LINE
  8
0
 10
3.240
 20
0.815
 11
3.240
 21
0.812
  0
LINE
  8
0
 10
3.330
 20
-0.815
 11
3.330
 21
-0.812
  0
ARC
  8
0
 10
3.330
 20
0.810
 40
0.090
 50
3.180
 51
-176.820
  0
LINE
  8
0
 10
3.240
 20
0.805
 11
3.330
 21
-0.815
  0
LINE
  8
0
 10
3.420
 20
0.815
 11
3.510
 21
-0.805
  0
ARC
  8
0
 10
3.420
 20
-0.810
 40
0.090
 50
-176.820
 51
3.180
  0
LINE
  8
0
 10
3.420
 20
0.815
 11
3.420
 21
0.812
  0
LINE
  8
0
 10
3.510
 20
-0.815
 11
3.510
 21
-0.812
  0
ARC
  8
0
 10
3.510
 20
0.810
 40
0.090
 50
3.180
 51
-176.820
  0
LINE
  8
0
 10
3.420
 20
0.805
 11
3.510
 21
-0.815
  0
LINE
  8
0
 10
3.600
 20
0.815
 11
3.690
 21
-0.805
  0
ARC
  8
0
 10
3.600
 20
-0.810
 40
0.090
 50
-176.820
 51
3.180
  0
LINE
  8
0
 10
3.600
 20
0.815
 11
3.600
 21
0.812
  0
LINE
  8
0
 10
3.690
 20
-0.815
 11
3.690
 21
-0.812
  0
ARC
  8
0
 10
3.690
 20
0.810
 40
0.090
 50
3.180
 51
-176.820
  0
LINE
  8
0
 10
3.600
 20
0.805
 11
3.690
 21
-0.815
  0
LINE
  8
0
 10
3.780
 20
0.815
 11
3.870
 21
-0.805
  0
ARC
  8
0
 10
3.780
 20
-0.810
 40
0.090
 50
-176.820
 51
3.180
  0
LINE
  8
0
 10
3.780
 20
0.815
 11
3.780
 21
0.812
  0
LINE
  8
0
 10
3.870
 20
-0.815
 11
3.870
 21
-0.812
  0
ARC
  8
0
 10
3.870
 20
0.810
 40
0.090
 50
3.180
 51
-176.820
  0
LINE
  8
0
 10
3.780
 20
0.805
 11
3.870
 21
-0.815
  0
LINE
  8
0
 10
3.960
 20
0.815
 11
4.050
 21
-0.805
  0
ARC
  8
0
 10
3.960
 20
-0.810
 40
0.090
 50
-176.820
 51
3.180
  0
LINE
  8
0
 10
3.960
 20
0.815
 11
3.960
 21
0.812
  0
LINE
  8
0
 10
4.050
 20
-0.815
 11
4.050
 21
-0.812
  0
ARC
  8
0
 10
4.050
 20
0.810
 40
0.090
 50
3.180
 51
-176.820
  0
LINE
  8
0
 10
3.960
 20
0.805
 11
4.050
 21
-0.815
  0
LINE
  8
0
 10
4.140
 20
0.815
 11
4.230
 21
-0.805
  0
ARC
  8
0
 10
4.140
 20
-0.810
 40
0.090
 50
-176.820
 51
3.180
  0
LINE
  8
0
 10
4.140
 20
0.815
 11
4.140
 21
0.812
  0
LINE
  8
0
 10
4.230
 20
-0.815
 11
4.230
 21
-0.812
  0
ARC
  8
0
 10
4.230
 20
0.810
 40
0.090
 50
3.180
 51
-176.820
  0
LINE
  8
0
 10
4.140
 20
0.805
 11
4.230
 21
-0.815
  0
LINE
  8
0
 10
4.320
 20
0.815
 11
4.410
 21
-0.805
  0
ARC
  8
0
 10
4.320
 20
-0.810
 40
0.090
 50
-176.820
 51
3.180
  0
LINE
  8
0
 10
4.320
 20
0.815
 11
4.320
 21
0.812
  0
LINE
  8
0
 10
4.410
 20
-0.815
 11
4.410
 21
-0.812
  0
ARC
  8
0
 10
4.410
 20
0.810
 40
0.090
 50
3.180
 51
-176.820
  0
LINE
  8
0
 10
4.320
 20
0.805
 11
4.410
 21
-0.815
  0
LINE
  8
0
 10
4.500
 20
0.815
 11
4.590
 21
-0.805
  0
ARC
  8
0
 10
4.500
 20
-0.810
 40
0.090
 50
-176.820
 51
3.180
  0
LINE
  8
0
 10
4.500
 20
0.815
 11
4.500
 21
0.812
  0
LINE
  8
0
 10
4.590
 20
-0.815
 11
4.590
 21
-0.812
  0
ARC
  8
0
 10
4.590
 20
0.810
 40
0.090
 50
3.180
 51
-176.820
  0
LINE
  8
0
 10
4.500
 20
0.805
 11
4.590
 21
-0.815
  0
LINE
  8
0
 10
4.680
 20
0.815
 11
4.770
 21
-0.805
  0
ARC
  8
0
 10
4.680
 20
-0.810
 40
0.090
 50
-176.820
 51
3.180
  0
LINE
  8
0
 10
4.680
 20
0.815
 11
4.680
 21
0.812
  0
LINE
  8
0
 10
4.770
 20
-0.815
 11
4.770
 21
-0.812
  0
ARC
  8
0
 10
4.770
 20
0.810
 40
0.090
 50
3.180
 51
-176.820
  0
LINE
  8
0
 10
4.680
 20
0.805
 11
4.770
 21
-0.815
  0
LINE
  8
0
 10
4.860
 20
0.815
 11
4.950
 21
-0.805
  0
ARC
  8
0
 10
4.860
 20
-0.810
 40
0.090
 50
-176.820
 51
3.180
  0
LINE
  8
0
 10
4.860
 20
0.815
 11
4.860
 21
0.812
  0
LINE
  8
0
 10
4.950
 20
-0.815
 11
4.950
 21
-0.812
  0
ARC
  8
0
 10
4.950
 20
0.810
 40
0.090
 50
3.180
 51
-176.820
  0
LINE
  8
0
 10
4.860
 20
0.805
 11
4.950
 21
-0.815
  0
LINE
  8
0
 10
5.040
 20
0.815
 11
5.130
 21
-0.805
  0
ARC
  8
0
 10
5.040
 20
-0.810
 40
0.090
 50
-176.820
 51
3.180
  0
LINE
  8
0
 10
5.040
 20
0.815
 11
5.040
 21
0.812
  0
LINE
  8
0
 10
5.130
 20
-0.815
 11
5.130
 21
-0.812
  0
ARC
  8
0
 10
5.130
 20
0.810
 40
0.090
 50
3.180
 51
-176.820
  0
LINE
  8
0
 10
5.040
 20
0.805
 11
5.130
 21
-0.815
  0
LINE
  8
0
 10
5.220
 20
0.815
 11
5.310
 21
-0.805
  0
ARC
  8
0
 10
5.220
 20
-0.810
 40
0.090
 50
-176.820
 51
3.180
  0
LINE
  8
0
 10
5.220
 20
0.815
 11
5.220
 21
0.812
  0
LINE
  8
0
 10
5.310
 20
-0.815
 11
5.310
 21
-0.812
  0
ARC
  8
0
 10
5.310
 20
0.810
 40
0.090
 50
3.180
 51
-176.820
  0
LINE
  8
0
 10
5.220
 20
0.805
 11
5.310
 21
-0.815
  0
LINE
  8
0
 10
5.400
 20
0.815
 11
5.490
 21
-0.805
  0
ARC
  8
0
 10
5.400
 20
-0.810
 40
0.090
 50
-176.820
 51
3.180
  0
LINE
  8
0
 10
5.400
 20
0.815
 11
5.400
 21
0.812
  0
LINE
  8
0
 10
5.490
 20
-0.815
 11
5.490
 21
-0.812
  0
ARC
  8
0
 10
5.490
 20
0.810
 40
0.090
 50
3.180
 51
-176.820
  0
LINE
  8
0
 10
5.400
 20
0.805
 11
5.490
 21
-0.815
  0
LINE
  8
0
 10
5.580
 20
0.815
 11
5.670
 21
-0.805
  0
ARC
  8
0
 10
5.580
 20
-0.810
 40
0.090
 50
-176.820
 51
3.180
  0
LINE
  8
0
 10
5.580
 20
0.815
 11
5.580
 21
0.812
  0
LINE
  8
0
 10
5.670
 20
-0.815
 11
5.670
 21
-0.812
  0
ARC
  8
0
 10
5.670
 20
0.810
 40
0.090
 50
3.180
 51
-176.820
  0
LINE
  8
0
 10
5.580
 20
0.805
 11
5.670
 21
-0.815
  0
LINE
  8
0
 10
5.760
 20
0.815
 11
5.850
 21
-0.805
  0
ARC
  8
0
 10
5.760
 20
-0.810
 40
0.090
 50
-176.820
 51
3.180
  0
LINE
  8
0
 10
5.760
 20
0.815
 11
5.760
 21
0.812
  0
LINE
  8
0
 10
5.850
 20
-0.815
 11
5.850
 21
-0.812
  0
ARC
  8
0
 10
5.850
 20
0.810
 40
0.090
 50
3.180
 51
-176.820
  0
LINE
  8
0
 10
5.760
 20
0.805
 11
5.850
 21
-0.815
  0
LINE
  8
0
 10
5.940
 20
0.815
 11
6.030
 21
-0.805
  0
ARC
  8
0
 10
5.940
 20
-0.810
 40
0.090
 50
-176.820
 51
3.180
  0
LINE
  8
0
 10
5.940
 20
0.815
 11
5.940
 21
0.812
  0
LINE
  8
0
 10
6.030
 20
-0.815
 11
6.030
 21
-0.812
  0
ARC
  8
0
 10
6.030
 20
0.810
 40
0.090
 50
3.180
 51
-176.820
  0
LINE
  8
0
 10
5.940
 20
0.805
 11
6.030
 21
-0.815
  0
LINE
  8
0
 10
6.120
 20
0.815
 11
6.210
 21
-0.805
  0
ARC
  8
0
 10
6.120
 20
-0.810
 40
0.090
 50
-176.820
 51
3.180
  0
LINE
  8
0
 10
6.120
 20
0.815
 11
6.120
 21
0.812
  0
LINE
  8
0
 10
6.210
 20
-0.815
 11
6.210
 21
-0.812
  0
ARC
  8
0
 10
6.210
 20
0.810
 40
0.090
 50
3.180
 51
-176.820
  0
LINE
  8
0
 10
6.120
 20
0.805
 11
6.210
 21
-0.815
  0
LINE
  8
0
 10
6.300
 20
0.815
 11
6.390
 21
-0.805
  0
ARC
  8
0
 10
6.300
 20
-0.810
 40
0.090
 50
-176.820
 51
3.180
  0
LINE
  8
0
 10
6.300
 20
0.815
 11
6.300
 21
0.812
  0
LINE
  8
0
 10
6.390
 20
-0.815
 11
6.390
 21
-0.812
  0
ARC
  8
0
 10
6.390
 20
0.810
 40
0.090
 50
3.180
 51
-176.820
  0
LINE
  8
0
 10
6.300
 20
0.805
 11
6.390
 21
-0.815
  0
LINE
  8
0
 10
6.480
 20
0.815
 11
6.570
 21
-0.805
  0
ARC
  8
0
 10
6.480
 20
-0.810
 40
0.090
 50
-176.820
 51
3.180
  0
LINE
  8
0
 10
6.480
 20
0.815
 11
6.480
 21
0.812
  0
LINE
  8
0
 10
6.570
 20
-0.815
 11
6.570
 21
-0.812
  0
ARC
  8
0
 10
6.570
 20
0.810
 40
0.090
 50
3.180
 51
-176.820
  0
LINE
  8
0
 10
6.480
 20
0.805
 11
6.570
 21
-0.815
  0
LINE
  8
0
 10
6.660
 20
0.815
 11
6.750
 21
-0.805
  0
ARC
  8
0
 10
6.660
 20
-0.810
 40
0.090
 50
-176.820
 51
3.180
  0
LINE
  8
0
 10
6.660
 20
0.815
 11
6.660
 21
0.812
  0
LINE
  8
0
 10
6.750
 20
-0.815
 11
6.750
 21
-0.812
  0
ARC
  8
0
 10
6.750
 20
0.810
 40
0.090
 50
3.180
 51
-176.820
  0
LINE
  8
0
 10
6.660
 20
0.805
 11
6.750
 21
-0.815
  0
LINE
  8
0
 10
6.840
 20
0.815
 11
6.930
 21
-0.805
  0
ARC
  8
0
 10
6.840
 20
-0.810
 40
0.090
 50
-176.820
 51
3.180
  0
LINE
  8
0
 10
6.840
 20
0.815
 11
6.840
 21
0.812
  0
LINE
  8
0
 10
6.930
 20
-0.815
 11
6.930
 21
-0.812
  0
ARC
  8
0
 10
6.930
 20
0.810
 40
0.090
 50
3.180
 51
-176.820
  0
LINE
  8
0
 10
6.840
 20
0.805
 11
6.930
 21
-0.815
  0
LINE
  8
0
 10
7.020
 20
0.815
 11
7.110
 21
-0.805
  0
ARC
  8
0
 10
7.020
 20
-0.810
 40
0.090
 50
-176.820
 51
3.180
  0
LINE
  8
0
 10
7.020
 20
0.815
 11
7.020
 21
0.812
  0
LINE
  8
0
 10
7.110
 20
-0.815
 11
7.110
 21
-0.812
  0
ARC
  8
0
 10
7.110
 20
0.810
 40
0.090
 50
3.180
 51
-176.820
  0
LINE
  8
0
 10
7.020
 20
0.805
 11
7.110
 21
-0.815
  0
LINE
  8
0
 10
7.200
 20
0.815
 11
7.290
 21
-0.805
  0
ARC
  8
0
 10
7.200
 20
-0.810
 40
0.090
 50
-176.820
 51
3.180
  0
LINE
  8
0
 10
7.200
 20
0.815
 11
7.200
 21
0.812
  0
LINE
  8
0
 10
7.290
 20
-0.815
 11
7.290
 21
-0.812
  0
ARC
  8
0
 10
7.290
 20
0.810
 40
0.090
 50
3.180
 51
-176.820
  0
LINE
  8
0
 10
7.200
 20
0.805
 11
7.290
 21
-0.815
  0
LINE
  8
0
 10
7.380
 20
0.815
 11
7.470
 21
-0.805
  0
ARC
  8
0
 10
7.380
 20
-0.810
 40
0.090
 50
-176.820
 51
3.180
  0
LINE
  8
0
 10
7.380
 20
0.815
 11
7.380
 21
0.812
  0
LINE
  8
0
 10
7.470
 20
-0.815
 11
7.470
 21
-0.812
  0
ARC
  8
0
 10
7.470
 20
0.810
 40
0.090
 50
3.180
 51
-176.820
  0
LINE
  8
0
 10
7.380
 20
0.805
 11
7.470
 21
-0.815
  0
LINE
  8
0
 10
7.560
 20
0.815
 11
7.650
 21
-0.805
  0
ARC
  8
0
 10
7.560
 20
-0.810
 40
0.090
 50
-176.820
 51
3.180
  0
LINE
  8
0
 10
7.560
 20
0.815
 11
7.560
 21
0.812
  0
LINE
  8
0
 10
7.650
 20
-0.815
 11
7.650
 21
-0.812
  0
ARC
  8
0
 10
7.650
 20
0.810
 40
0.090
 50
3.180
 51
-176.820
  0
LINE
  8
0
 10
7.560
 20
0.805
 11
7.650
 21
-0.815
  0
LINE
  8
0
 10
7.740
 20
0.815
 11
7.830
 21
-0.805
  0
ARC
  8
0
 10
7.740
 20
-0.810
 40
0.090
 50
-176.820
 51
3.180
  0
LINE
  8
0
 10
7.740
 20
0.815
 11
7.740
 21
0.812
  0
LINE
  8
0
 10
7.830
 20
-0.815
 11
7.830
 21
-0.812
  0
ARC
  8
0
 10
7.830
 20
0.810
 40
0.090
 50
3.180
 51
-176.820
  0
LINE
  8
0
 10
7.740
 20
0.805
 11
7.830
 21
-0.815
  0
LINE
  8
0
 10
7.920
 20
0.815
 11
8.010
 21
-0.805
  0
ARC
  8
0
 10
7.920
 20
-0.810
 40
0.090
 50
-176.820
 51
3.180
  0
LINE
  8
0
 10
7.920
 20
0.815
 11
7.920
 21
0.812
  0
LINE
  8
0
 10
8.010
 20
-0.815
 11
8.010
 21
-0.812
  0
ARC
  8
0
 10
8.010
 20
0.810
 40
0.090
 50
3.180
 51
-176.820
  0
LINE
  8
0
 10
7.920
 20
0.805
 11
8.010
 21
-0.815
  0
LINE
  8
0
 10
8.100
 20
0.815
 11
8.190
 21
-0.805
  0
ARC
  8
0
 10
8.100
 20
-0.810
 40
0.090
 50
-176.820
 51
3.180
  0
LINE
  8
0
 10
8.100
 20
0.815
 11
8.100
 21
0.812
  0
LINE
  8
0
 10
8.190
 20
-0.815
 11
8.190
 21
-0.812
  0
ARC
  8
0
 10
8.190
 20
0.810
 40
0.090
 50
3.180
 51
-176.820
  0
LINE
  8
0
 10
8.100
 20
0.805
 11
8.179
 21
-0.612
  0
LINE
  8
0
 10
8.280
 20
0.815
 11
8.359
 21
-0.603
  0
ARC
  8
0
 10
8.269
 20
-0.608
 40
0.090
 50
-176.820
 51
3.180
  0
LINE
  8
0
 10
8.359
 20
-0.609
 11
8.370
 21
0.013
  0
ARC
  8
0
 10
9.090
 20
0.000
 40
0.720
 50
-112.500
 51
178.952
  0
ARC
  8
0
 10
9.090
 20
0.000
 40
0.900
 50
-112.500
 51
151.233
  0
LINE
  8
0
 10
8.746
 20
-0.831
 11
8.814
 21
-0.665
  0
ENDSEC
  0
EOF
